» » »

Funeral For A Friend, Bend Your Arms To Look Like Wings Tabs (ver.1)

Artists:  A B C D E F G H I J K L M N O P Q R S T U V W X Y Z # 

Bend Your Arms To Look Like Wings Tabs (ver.1)

Funeral For A Friend Tabs
 Rating:
4/5 (10 votes)
Bend Your Arms To Look Like Wings lessons Tabs too difficult? Try these video lessons and learn fast
                This is my first tab but im pleased with it as it is correct n iv been ova it 2 make sure
Tuning: Drop C#
C# G# C# F# A# D#

Intro:

Guitar 1
:-------------------------------------------------------|
:-------------------------------------------------------|
:-------------------------------------------------------|
:--2--0-0-0----2---0-0-0-----2---0-0-0-------2---0-0-0--|
:-----------4------------4-0---0-------4--------------4-|
:4--4--------0---0-------------------------2---2--------|

Guitar 2
:--------------------------12--------------------------|
:---10------12-----10---------10-----------------------|
:-9-----9-9----9-9-----9-9-----------------------------|
:------------------------------------------------------|
:------------------------------------------------------|
:------------------------------------------------------|

Intro 2:

Guitar 1
:----------------------------------------------------------|
:----------------------------------------------------------|
:----------------------------------------------------------|
:---2---0--------2---0---------2---0--------2---0----------|
:-----------4------------4---0---0---0-4------------4------|
:-4---4---4----0---0---0------------------2---2---0--------|

Guitar 2
:----------------------------------------------------------|
:--------10--------------------------10---------5-7-5------|
:--6-7-9----9-7-6-7-9----------6-7-9----9-7-6-7-------4----|
:---------------------9-7-9--------------------------------|
:----------------------------------------------------------|
:----------------------------------------------------------|


Then

Guitar 1
:---------2-----------------2-----------------2-----------------2-------|
:---2-------2---2-----2-------2---2-----2-------2---2-----2-------2---2-|
:-----2-------2---------2-------2---------2-------2---------2-------2---|
:-4-----4-----------0-----0-----------2-----2-----------2-----2---------|
:-----------------------------------------------------------------------|
:-----------------------------------------------------------------------|

Guitar 2
:----------------------------------------------------------------|
:----------------------------------------------------------------|
:----------------------------------------------------------------|
:4-4-4-4-4-4-4-4-0-0-0-0-0-0-0-0-7-7-7-7-7-7-7-7-2-2-2-2-2-2-2-2-|
:4-4-4-4-4-4-4-4-0-0-0-0-0-0-0-0-7-7-7-7-7-7-7-7-2-2-2-2-2-2-2-2-|
:4-4-4-4-4-4-4-4-0-0-0-0-0-0-0-0-7-7-7-7-7-7-7-7-2-2-2-2-2-2-2-2-|


Verse:

Guitar 1
:------------------------------------------------------|
:------------------------------------------------------|
:------------------------------------------------------|
:-0-0-0-------0-0-0---------0-0-0-------0-0-0----------|
:-0-0-0-------0-0-0---------0-0-0-------0-0-0----------|
:-0-0-0-------0-0-0---------0-0-0-------0-0-0----------|

Guitar 2
:------------------------------------------------------|
:------------------------------------------------------|
:------------------------------------------------------|
:-0-0-0-6-0-6-0-0-0-6-0-6h7-0-0-0-6-0-6-0-0-0-6-0-6h7--|
:-0-0-0-------0-0-0---------0-0-0-------0-0-0----------|
:-0-0-0-------0-0-0---------0-0-0-------0-0-0----------|

Guitar 1
:-------------------------------------------------------|
:-------------------------------------------------------|
:-------------------------------------------------------|
:-0-0-0-------0-0-0---------0-0-0-------0-0-0-7-7-7-7-9-|
:-0-0-0-------0-0-0---------0-0-0-------0-0-0-----------|
:-0-0-0-------0-0-0---------0-0-0-------0-0-0-----------|

Guitar 2
:-------------------------------------------------------|
:-------------------------------------------------------|
:-------------------------------------------------------|
:-0-0-0-6-0-6-0-0-0-6-0-6h7-0-0-0-6-0-6-0-0-0-7-7-7-7-9-|
:-0-0-0-------0-0-0---------0-0-0-------0-0-0-----------|
:-0-0-0-------0-0-0---------0-0-0-------0-0-0-----------|

Pre-chorus:

Guitar 1
:------------------------------------------------------|
:---10---9------10---9------10---9------10---9---------|
:------9---9-------9---9-------9---9-------9---9-------|
:------------------------------------------------------|
:------------------------------------------------------|
:------------------------------------------------------|

Guitar 2
:------------------------------------------------------|
:------------------------------------------------------|
:------------------------------------------------------|
:-0-0-----0-0-----0-0-----0-0-----0-0------------------|
:-0-0-----0-0-----0-0-----0-0-----0-0------------------|
:-0-0-----0-0-----0-0-----0-0-----0-0------------------|


Chorus:
This is literally the same as the second intro
(thats both guitar parts not just guitar 1)

Verse:

Chorus:

Then:

Guitar 1
:---------5----------------5----------------5----------------5-------|
:---5-------5---5----5-------5---5----5-------5---5----5-------5---5-|
:-----5-------5--------5-------5--------5-------5--------5-------5---|
:-7-----7----------3-----3----------5-----5----------5-----5---------|
:--------------------------------------------------------------------|
:--------------------------------------------------------------------|

Guitar 2
:-------------------------------------------------------------------------|
:-------------------------------------------------------------------------|
:-------------------------------------------------------------------------|
:-7-7-7-7-7-7-7-7-3-3-3-3-3-3-3-3-10-10-10-10-10-10-10-10-5-5-5-5-5-5-5-5-|
:-7-7-7-7-7-7-7-7-3-3-3-3-3-3-3-3-10-10-10-10-10-10-10-10-5-5-5-5-5-5-5-5-|
:-7-7-7-7-7-7-7-7-3-3-3-3-3-3-3-3—10-10-10-10-10-10-10-10-5-5-5-5-5-5-5-5-|


Then:

Guitar 1
:---------2---------------2----------------2-----------------2-------|
:---2-------2---2----2-------2---2----2-------2---2----2-------2---2-|
:-----2-------2--------2-------2--------2-------2--------2-------2---|
:-4-----4----------0-----0----------2-----2----------2-----2---------|
:--------------------------------------------------------------------|
:--------------------------------------------------------------------|

Guitar 2
:----------------------------------------------------------------|
:----------------------------------------------------------------|
:----------------------------------------------------------------|
:4-4-4-4-4-4-4-4-0-0-0-0-0-0-0-0-7-7-7-7-7-7-7-7-2-2-2-2-2-2-2-2-|
:4-4-4-4-4-4-4-4-0-0-0-0-0-0-0-0-7-7-7-7-7-7-7-7-2-2-2-2-2-2-2-2-|
:4-4-4-4-4-4-4-4-0-0-0-0-0-0-0-0-7-7-7-7-7-7-7-7-2-2-2-2-2-2-2-2-|


Outro:

Guitar 1
:--------------------------------------------------------------------|
:--------------------------------------------------------------------|
:---------------------------------------2-2-----2-2------1-1-----2-2-|
:-----7-7-----7-7------7-7-----7-7-----------------------------------|
:---4-------4--------4-------4--------2-------2--------2-------2-----|
:-4-------4--------4-------4--------2-------2--------2-------2-------|

Guitar 2
:------------------------------------------------------|
:----10---12-10---10------10---12-10---10--------------|
:--9----9-------9-------9----9-------9-----------------|
:------------------------------------------------------|
:------------------------------------------------------|
:------------------------------------------------------|


Then when guitar 2 has stopped carry with the following:

Guitar 1
:--------------------------------------------------------------------|
:--------------------------------------------------------------------|
:---------------------------------------2-2-----2-2------1-1-----1-1-|
:-----7-7-----7-7------7-7-----7-7-----------------------------------|
:---4-------4--------4-------4--------2-------2--------2-------2-----|
:-4-------4--------4-------4--------2-------2--------2-------2-------|

Hope you enjoy playing this as much as i do
            
Submit corrections

comments powered by Disqus
↑ Back to top | Funeral For A Friend Tabs for Bend Your Arms To Look Like Wings. Lyrics for acoustic guitar and electric guitar. Tablatures and chords are parodies/interpretations of the original songs. You may use it for private study, scholarship, research or language learning purposes only