» » »

Alvarez Bass tabs (ver.1)

Artists:  A B C D E F G H I J K L M N O P Q R S T U V W X Y Z # 

Alvarez Bass tabs (ver.1)

Funeral For A Friend
Rating:
5/5 (1 vote)

Hard to play? Try these video lessons and learn fast.
                -------------------------------------------------------------------------------
-------------------------------------------------------------------------------


 Tuning:Drop D flat (Db Ab Db Gb)
 
  Intro x2
Gb|-------------------|
Db|-------------------|
Ab|-------------------|
Db|6~------2~---------|

 Verse x4 "The stars will be your...."
Gb|---------------------------------------|
Db|---------------------------------------|
Ab|---------------------------------------|
Db|6666666666666666-2222222222222222------|

  Pre-Chorus x2
Gb|---------------------------------------|
Db|---------------------------------------|
Ab|---------------------------------------|
Db|444-444-444-444---222-222-222-222------|

  Chorus x2
Gb|-------------------|
Db|-------------------|
Ab|-------------------|
Db|6~------2~---------|

 Verse x2
Gb|---------------------------------------|
Db|---------------------------------------|
Ab|---------------------------------------|
Db|6666666666666666-2222222222222222------|

 Pre-Chorus x2 "It burns and leaves...."
Gb|---------------------------------------|
Db|---------------------------------------|
Ab|---------------------------------------|
Db|444-444-444-444---222-222-222-222------|


  Chorus x4
Gb|-------------------|
Db|-------------------|
Ab|-------------------|
Db|6~------2~---------|

  Bridge x2
Gb|---------------------------------------------------------------------------|
Db|---------------------------------------------------------------------------|
Ab|7777777777777777/9999\77777777777777777------------------------------------|
Db|----------------------------------------4444444444444444-666666666666666---|
  x1
Gb|---------------------------------------|
Db|---------------------------------------|
Ab|7777777777777777/0\7777777777777777----|
Db|---------------------------------------|
  
  Outro x4 "Just like the good old days...."
Gb|-----------------------------------------------------------------------|
Db|-----------------------------------------------------------------------|
Ab|2222222222222-2h4------------------------------------------------------|
Db|------------------4444444444444444-2222222222222222-4444444444444444---|
  x1
Gb|---------------------------------------|
Db|---------------------------------------|
Ab|2222222222222-2h4----------------------|
Db|------------------4444444444444444-2~--|
            
Hard to play? Try these video lessons and learn fast. | Correct




comments powered by Disqus
↑ Back to top | Tablatures and chords are parodies/interpretations of the original songs. You may use it for private study, scholarship, research or language learning purposes only