» » »

10 Scene Points To The Winner Tabs (ver.2)

Artists:  A B C D E F G H I J K L M N O P Q R S T U V W X Y Z # 

10 Scene Points To The Winner Tabs (ver.2)

Funeral For A Friend
Rating:
0/5 (0 votes)

Hard to play? Try these video lessons and learn fast.
                (Intro)
FFAF - 10 scene points to the winner

This is the way darren plays it, i've also seen it played 
with 'hammer ons' and 'pull offs' instead of slides

eb--------------------------------------------------------|
bb--------------------------------------------------------|
gb--------------------------------------------------------|
Db-----2/3/2p0-----2/3/2p0-----1p0-----2/3/2p0------------|
Ab---------------------------------------------------8-7*-| x3
Db-0-0---------0-0---------0-0-----0-0---------0-0/8------|

eb--------------------------------------------------------|
bb--------------------------------------------------------|
gb--------------------------------------------------------|
Db-----2/3/2p0-----2/3/2p0-----1p0-----2/3/2p0-2h3p2h3p2h3|
Ab--------------------------------------------------------| x1
Db-0-0---------0-0---------0-0-----0-0--------------------|
            
Hard to play? Try these video lessons and learn fast. | Correct




comments powered by Disqus
↑ Back to top | Tablatures and chords are parodies/interpretations of the original songs. You may use it for private study, scholarship, research or language learning purposes only