» » »

Mista Mista Tabs (ver.1)

Artists:  A B C D E F G H I J K L M N O P Q R S T U V W X Y Z # 

Mista Mista Tabs (ver.1)

Fugees
Rating:
0/5 (0 votes)

Hard to play? Try these video lessons and learn fast.
                Mista mista - The Fugees

INtro
E-------------0----2-3-2-3-2--------------------------|
B-------------0---------------------------------------|
G----------0----0-------------------------------------|
D-----------------------------------------------------|
A-----------------------------------------------------|
e-----0-----------------------------------------------|

couplet
	Em		Em/D#          	Em/D		C#m/E
E-----0--------0-----------0------------------0-------0-------0------0----|
B-----0--------0-----------0------0-----------0-------0-------0------0----|
G---0---0----0----0-----0----0----0---------0---0---0---0---0---0--0---0--|
D----------2--------2-1-------------1--2--0------0---------------2--------|
A------------------------------2--------------------------4---------------|
e-0-----------------------------------------------------------------------|
       Mista mista   Can I get five dollars   So I can get something to eat

etc...

Em
Mista mista
Em/D#
Can I get five dollars
Em/D			C#m/E
So I can get something to eat

Em
Hell no motherf**ka
Em/D#
You can’t get no money from me
Em/D
Cause everytime I give you a dollar
C#m
You go get shot up with more and more needles    And you tell me that

Em		Em/D#
you’re drug free
Em/D	C#m/E
Drug free

Em
Mista mista
Em/D#
I haven’t ate anything for a week
Em/D		C#m/E
Can I get a quarter?


Em
Hell no motherf**ka
		Em/D#
What can a quarter get you?
		Em/D
Nothing motherf**ka
          C#m/E
You are just f**ked up
          C#m/E
Off them f**ked up drugs
          C#m/E
You know you need to leave alone
          C#m/E
But you keep telling me that

Em
you’re drug free
Em/D#
Motherf**ka
Em/D				C#m/E
You ain’t drug free, you’re a fiend

	  Am	   D
And everytime      I try to help you
	G		     C
You pretend   as if    it’s okay
C
Then later on in the week
C					B7
You go back to shootin’ needles, to sniffin’
			B7
Oh my love my god but you told me you were

Em
drug free
Em/D#
Drug free
Em/D
You ain’t drug free motherf**ka
C#m/E 				                      Em
So you damn well, can’t get no motherf**kin money for me ee e
            
Hard to play? Try these video lessons and learn fast. | Correct




comments powered by Disqus
↑ Back to top | Tablatures and chords are parodies/interpretations of the original songs. You may use it for private study, scholarship, research or language learning purposes only