» » »

Wasted Time Bass tabs (ver.1)

Artists:  A B C D E F G H I J K L M N O P Q R S T U V W X Y Z # 

Wasted Time Bass tabs (ver.1)

Fuel
Rating:
0/5 (0 votes)

Hard to play? Try these video lessons and learn fast.
                Bassist: Jeff Abercrombie

First single off of their new album Angels and Devils.  Technically, Jeff doesn't do the
at the beginning of the studio version, but he does do it on the studio acoustic
and I think it sounds a little better, but that's pretty much preference.  Again, some 
the fills are mostly from trying to get them by ear from the studio acoustic version, so
probably not perfect but they do fit in well.
Intro - no bass

Verse 1 - start halfway through when the drums come in

G--------------------------------------|
D----------------------------------\12-|
A--------------------------------------|
E--------------------------------------|

G-------------------------------------|
D-4--4-4------------------------------|
A---------4-4---5--5-5---4-4-2--------|
E-------------------------------------|

G-------------------------------------|
D-4--4-4------------------------------|
A---------4-4---5--5-5---0-4-5--------|
E-------------------------------------|


Prechorus
G-------------------------------------|
D-2--2--2-4-6---0-0000--(mute)--------|
A-------------------------------------|
E-------------------------------------|

1st Chorus
G-------------------------------------|
D-------------------------------------|
A-----------------7--7--7-------------|
E-5--5--5-5------0--0--0-0-0----------|


G-------------------------------------|
D-------------------------------------|
A-------------5---5---5-5-55-4--------|
E-2--2---0-0--------------------------|

G-------------------------------------|
D-------------------------------------|
A-----------------7--7--7-------------|
E-5--5--5-5------0--0--0-0-0----------|


G-------------------------------------|
D-------------------------------------|
A-------------5-----------------------|
E-2--2---0-0--------------------------|

Verse 2
G-------------------------------------|
D-4--4-4------------------------------|
A---------4-4---5--5-5---4-4-2--------|
E-------------------------------------|

G-------------------------------------|
D-4--4-4------------------------------|
A---------4-4---5--5-5---4-2-0--------|
E-------------------------------------|

G-------------------------------------|
D-4--4-4------------------------------|
A---------4-4---5--5-5---4-4-2--------|
E-------------------------------------|

G-------------------------------------|
D-4--4-4------------------------------|
A---------4-4---5--5-5---4-4-2--------|
E-------------------------------------|

G-------------------------------------|
D-4--4-4------------------------------|
A---------4-4---5--5-5---4-4-2--------|
E-------------------------------------|

G-------------------------------------|
D-4--4-4------------------------------|
A---------4-4---5--5-5---0-4-5--------|
E-------------------------------------|

Prechorus
G-------------------------------------|
D-2--2--2-4-6---0-0000--(mute)--------|
A-------------------------------------|
E-------------------------------------|

2nd Chorus
G-------------------------------------|
D-------------------------------------|
A-----------------7--7--7-------------|
E-5--5--5-5------0--0--0-0-0----------|


G-------------------------------------|
D-------------------------------------|
A-------------5---5---5-5-55-4--------|
E-2--2---0-0--------------------------|

G-------------------------------------|
D-------------------------------------|
A-----------------7--7--7-------------|
E-5--5--5-5------0--0--0-0-0----------|


G-------------------------------------|
D-------------------------------------|
A-------------5--5--5--0-4-5----------|
E-2--2---0-0--------------------------|

Bridge
G-------------------------------------|
D-------------------------------------|
A--7--7--7-7---5--5-5--5-5--0-4-5-----|
E-------------------------------------|


G-------------------------------------|
D-------------------------------------|
A--7--7--7-7---5--5-5--5-5--4-2-0-----|
E-------------------------------------|

G-------------------------------------|
D-------------------------------------|
A--7--7--7-7---5--5-5--5-5--5-5-5-----|
E-------------------------------------|

G-------------------------------------|
D-------------------------------------|
A-------------/12~--------------------|
E-2-2--0-0----------------------------|

Acoustic Chorus (Play Lightly)

G-------------------------------------|
D-------------------------------------|
A----------------------5-5555-(mute)--|
E-5~----0~-----2~-4~------------------|

Interlude
G-------------------------------------|
D-----------2-------------------------|
A-0---0-2-4---------------------5-5\--|
E-------------0-0-0--2--2--0-0--------|

Final Chorus
G-------------------------------------|
D-----------2-------------------------|
A-0---0-2-4---------------------5-5\--|
E-------------0-0-0--2--2--0-0--------|

G-------------------------------------|
D-----------2-------------------------|
A-0---0-2-4---------------------5-5\--|
E-------------0-0-0--2--2--0-0--------|

G-------------------------------------|
D-----------2-------------------------|
A-0---0-2-4---------------------5-5\--|
E-------------0-0-0--2--2--0-0--------|

G-------------------------------------|
D-----------2-------------------------|
A-0---0-2-4---------------------5-5\--|
E-------------0-0-0--2--2--0-0--------|

Outro
G-------------------------------------|
D-------------------------------------|
A-------------5--5-5--5h7--5-5-4------|
E-2--2--0-0---------------------------|

G-------------------------------------|
D-------------------------------------|
A-------------\12--12-12-12-12-11-11--|
E-2--2--0-0---------------------------|

G-------------------------------------|
D-------------------------------------|
A-------------5--5-5--5h7--5-5-4------|
E-2--2--0-0---------------------------|

G-------------------------------------|
D-------------------------------------|
A-------------\12---------------------|
E-2--2--0-0---------------------------|


That's it, if you can't find the rhythem then just sync it up with the bass drum, 
too hard here.
            
Hard to play? Try these video lessons and learn fast. | Correct




comments powered by Disqus
↑ Back to top | Tablatures and chords are parodies/interpretations of the original songs. You may use it for private study, scholarship, research or language learning purposes only