>
 >
Untitled

Untitled Guitar Tabs

Fuel - Untitled chords, tabs, tablatures, lyrics

Guitar lessons | Add/correct | Request | Top 50 tabs Artists:  A B C D E F G H I J K L M N O P Q R S T U V W X Y Z 0-9

Untitled Guitar Tabs – Fuel

CD, Sheet music, Poster

Do you like Untitled? Share with your friends now
Tabs
PROPS GO TO: Timothy Maxwell

Fuel
1. Untitled
   Sunburn
   Dropped-D Tuning
Intro: (Riff 1)
 Dm
|---------------------------------------------------------------------------------------|
|---------------------------------------------------------------------------------------|
|------------------------------------------------------------------------------------12-|
|---------------------------------------------------------------------------------------|
|---------------------------------------------------------------------------------------|
|-12-12-12-12-12-12-12-13-13-13-13-13-13-13-12-12-12-12-12-12-12-13-13-13-13-13-13-13---|
|
| Bass-Dropped-d
|---------------------------------------------------------------------------------------|
|---------------------------------------------------------------------------------------|
|------------------------------------------------------------------------------------10-|
|-0----0--0----0-------1----1--1----1--------0----0--0----0-------1----1--1----1--------|
 Dm
|---------------------------------------------------------------------------------------|
|---------------------------------------------------------------------------------------|
|---------------------------------------------------------------------------------------|
|---------------------------------------------------------------------------------------|
|---------------------------------------------------------------------------------------|
|-12-12-12-12-12-12-12-13-13-13-13-13-13-13-12-12-12-12-12-12-12-13-13-13-13-13-13-13---|
|
|
|---------------------------------------------------------------------------------------|
|---------------------------------------------------------------------------------------|
|-------------------------------------------------------------------------------5--3--2-|
|-0----0--0----0-------1----1--1----1-------0----0--0----0-------1----1--1----1---------|
Repeat
Verse 1: (Riff 1)
I wanted to feel something
To be something to see something
Chorus:
Dsus2       Dsus2maj7             G5
I wanted to find one thing that was mine
               Dsus2     (F) (G)
And leave this behind
Dsus2             Dsus2maj7        G5
But I can't find my way to get far away
               Riff 1
And bury these days
Verse 2: (Riff 2)
Fantasy
One reality
Becomes such a parody
Chorus
3rd verse:
If Shining
Or if shaking
It's reality faking
Don't have the solo because I don't have a guitar in my hands, but I will tab it later
Ends off like this
|-------------------------------|
|-------------------------------|
|--12--12--12~~~~~~~~~~~~-------|
|-------------------------------|
|-------------------------------|
|--13--13--13~~~~~~~~~~~~-------|
|
|-------------------------------|
|-------------------------------|
|--6---6---6~~~~~~~~~~~~~-------|
|-------------------------------|
Chords:
Dsus2: 000230 OR X57755
Dsus2maj7: 0002200 OR X57655
G5: 555(7)XX (F): 3XXXXX (G): 5XXXXX





Comments


Popular Fuel tabs & chords
Hemorrhage In My Hands Bass Tabs
Wasted Time Chords
Bittersweet Tabs
Down 1 Tabs
Hideaway Intro Tabs
Quarter Tabs
Quarter 1 Tabs
Sunburn 1 Tabs
Won't Back Down 1 Tabs
Wasted Time Ukulele


Song lyrics



↑ Back to top | Tablatures and chords are parodies/interpretations of the original songs. You may use it for private study, scholarship, research or language learning purposes only
© 2014 AZChords.com Contact us | Privacy policy | DMCA | Add/correct tabs | Request tabs | Top 50 tabs