» » »

Fuel, Shimmer Tabs (ver.2)

Artists:  A B C D E F G H I J K L M N O P Q R S T U V W X Y Z # 

Shimmer Tabs (ver.2)

Fuel Tabs
 Rating:
4/5 (4 votes)
Shimmer lessons Tabs too difficult? Try these video lessons and learn fast
1
                Fuel-Shimmer
-Standard Tuning-

-Intro-
E-0----0---0-0-0--0--0---0---0-0-0-0-0---0------------------------------------- 
B-5----5---5-5-5--5/-7---7---7-7-7-8-7---7------------------------------------- 
G-0----0---0-0-0--0--0---0---0-0-0-0-0---0------------------------------------- 
D-5----5---5-5-5--5/-7---7---7-7-7-7-7---7------------------------------------- 
A-3----3---3-3-3--3/-5---5---5-5-5-5-5---5------------------------------------- 
E------------------------------------------------------------------------------ 
                                                                      
-Verse-
E-0--0---0-x--0----0----0--0--0-0---0--0---x--x-------------------------------- 
B-5--5---5-x--7----8----8--8--8-8---7--7---x--x-------------------------------- 
G-0--0---0-x--0----0----0--0--0-0---0--0---x--x-------------------------------- 
D-5--5---5-x--7----9----9--9--9-9---7--7---x--x-------------------------------- 
A-3--3---3-x--5----7----7--7--7-7---5--5---x--x-------------------------------- 
E------------------------------------------------------------------------------                                        

-Verse 2-
E-0--0--0-0----0---0--0--0-0-0-0--0--0-0--0------------------------------------ 
B-5--5--5-5----5/--7--7--7-7-7-7--7--7-7--7------------------------------------ 
G-0--0--0-0----0---0--0--0-0-0-0--0--0-0--0------------------------------------ 
D-5--5--5-5----5/--7--7--7-7-7-7--7--7-7--7------------------------------------ 
A-3--3--3-3----3/--5--5--5-5-5-5--5--5-5--5------------------------------------ 
E------------------------------------------------------------------------------ 
                                                                      
-Chorus-
E---------------0----0----0--0-0----------3---3----3---3--------2----2--0--0--- 
B---------------0----1----1--1-1----------3---3----3---3--------3----3--0--1--- 
G-------0-------0----2----2--2-2----------0---0----0---2--------2----2--0--2--- 
D-------2-------2----2----2--2-2----------2---2----2---0--------0----0--0--2--- 
A-------2-------2----0----0--0-0---2------3---3----3-----------------------0--- 
E-------0-------0-------------------------------------------------------------- 
                                                                        

E-0--0------3--3---3-3---3----3------------------------------------------------ 
B-1--1--0---3--3---3-3---3----3------------------------------------------------ 
G-2--2--0---0--0---0-0---0----0------------------------------------------------ 
D-2--2--0---2--2---2-2---2----2------------------------------------------------ 
A-0--0--2---3--3---3-3---3----3------------------------------------------------ 
E------------------------------------------------------------------------------                                       

-Ending Chords-
E-0---------------------3------------------------------------------------------ 
B-7---------------------3------------------------------------------------------ 
G-0---------------------0------------------------------------------------------ 
D-7---------------------2------------------------------------------------------ 
A-5---------------------3------------------------------------------------------ 
E------------------------------------------------------------------------------
            
Submit corrections

comments powered by Disqus
↑ Back to top | Fuel Tabs for Shimmer. Lyrics for acoustic guitar and electric guitar. 1 Tablatures and chords are parodies/interpretations of the original songs. You may use it for private study, scholarship, research or language learning purposes only