» » »

Fuel, Shimmer Tabs (ver.3)

Artists:  A B C D E F G H I J K L M N O P Q R S T U V W X Y Z # 

Shimmer Tabs (ver.3)

Fuel Tabs
 Rating:
4/5 (4 votes)
Shimmer lessons Tabs too difficult? Try these video lessons and learn fast
                This is the correct version.

-0----0---0-0-0--0--0---0---0-0-0-0-0---0-------------------------------------
-5----5---5-5-5--5/-7---7---7-8-8-8-8---7------x5-----------------------------
-0----0---0-0-0--0--0---0---0-0-0-0-0---0-------------------------------------
-5----5---5-5-5--5/-7---7---7-9-9-9-9---7-------------------------------------
-3----3---3-3-3--3/-5---5---5-7-7-7-7---5-------------------------------------
 verse I                                                                      

-0--0---0-x--0----0----0--0--0-0---0--0---x--x--------------------------------
-5--5---5-x--7----8----8--8--8-8---7--7---x--x--------------------------------
-0--0---0-x--0----0----0--0--0-0---0--0---x--x-----x2-------------------------
-5--5---5-x--7----9----9--9--9-9---7--7---x--x--------------------------------
-3--3---3-x--5----7----7--7--7-7---5--5---x--x--------------------------------
  verse II, then verse I, then verse III                                      

-0--0--0-0----0---0--0--0-0-0-0--0--0-0--0------------------------------------
-5--5--5-5----5/--7--7--7-7-7-7--7--7-7--7------------------------------------
-0--0--0-0----0---0--0--0-0-0-0--0--0-0--0------------------------------------
-5--5--5-5----5/--7--7--7-7-7-7--7--7-7--7------------------------------------
-3--3--3-3----3/--5--5--5-5-5-5--5--5-5--5------------------------------------
 verse III                                                                    

-------2-------0----0----0--0-0----------3---3----3---3---3----2----2--0--0---
-------0-------0----1----1--1-1----------3---3----3---3-----3--3----3--0--1---
-------0-------0----2----2--2-2----------0---0----0---2--------2----2--0--2---
-------2-------2----2----2--2-2----------2---2----2---0--------0----0--0--2---
-------2-------2----0----0--0-0---2------3---3----3-----------------------0---
-0-----0-------0--------------------------------------------------------------
 chorus                                                                       

-0--0------3--3---3-3---3----3------------------------------------------------
-1--1--0---3--3---3-3---3----3------------------------------------------------
-2--2--0---0--0---0-0---0----0------------------------------------------------
-2--2--0---2--2---2-2---2----2------------------------------------------------
-0--0--2---3--3---3-3---3----3------------------------------------------------
 then listen for the changes, end with...                                     

-0---------------------3------------------------------------------------------
-7---------------------3------------------------------------------------------
-0---------------------0------------------------------------------------------
-7---------------------2------------------------------------------------------
-5---------------------3------------------------------------------------------
 "Guess I'll let it    go"
            
Submit corrections

comments powered by Disqus
↑ Back to top | Fuel Tabs for Shimmer. Lyrics for acoustic guitar and electric guitar. Tablatures and chords are parodies/interpretations of the original songs. You may use it for private study, scholarship, research or language learning purposes only