» » »

Fuel, Scar Tabs (ver.2)

Artists:  A B C D E F G H I J K L M N O P Q R S T U V W X Y Z # 

Scar Tabs (ver.2)

Fuel Tabs
Rating:
0/5 (0 votes)
Scar lessons Tabs too difficult? Try these video lessons and learn fast
                Intro/verse

E--------------------------------------------------|
B--------------------------------------------------| (for verse, 4x)
G--------------------------------------------------|
D-------------3-----3---3---------------3-----3---3|
A--------------------------------------------------|
D-0-0-3/6-0-0-3-0-0-3-0-3-0-0-3b5-3-0-0-3-0-0-3-0-3|
chase the sun in my head......

Chorus:
E------------------------------------|
B------------------------------------|  2x
G------------------------------------|
D------------------------------------|
A-----3--2-2-3-2-2-3-2---------------|
D-0-0--0----0-0---0-0-0-3/6-3-2b3-2--|
Since you're gone, all is wrong, nothing feels the same down here
and if you're gone, and i'm alone, whose heart will i scar now dear?

E-5-5-7-7-3-3-5------|
B-5-5-7-7-3-3-5------|
G-7-7-9-9-5-5-7------| 
D-5-5-7-7-3-3-5------|
A-5-5-7-7-3-3-5------| 
D-5-5-7-7-3-3-5-2b3-2|
fall in, fall out
break free, break down

(intro, verse and chorus)

Chorus 2:

E-5-5-7-7-3-3-5------|
B-5-5-7-7-3-3-5------|
G-7-7-9-9-5-5-7------| 
D-5-5-7-7-3-3-5------|
A-5-5-7-7-3-3-5------| 
D-5-5-7-7-3-3-5-2b3-2|
one look and I die, one kiss, goodbye (repeat intro)

i think this is how the solo part flow. i don't know if that is correct.

GUITAR 1:
E----------8-------8----------------------|
B---7h8-7h8-7h8-7h8-7h8-7h8-7-7-8h10-8-7--|
G-----------------------------------------| (2x)
D-----------------------------------------|
A-----------------------------------------|
D-----------------------------------------|

GUITAR 2:
E------------------------------------------|
B------------------------------------------|
G------------------------------5-----------|
D---------------------0-4h5-5/6-4h5-4-5/6-5|(2x)
A---------------------0--------------------|
D-5b6-5-0-3b4-4-2b3-2-0------------------|


GUITAR 1:
E----------8-------8-8b9-------------------|
B---7h8-7h8-7h8-7h8------------------------|
G------------------------------------------|
D------------------------------------------|
A------------------------------------------|
D------------------------------------------|

GUITAR 2:
E------------------------------------------|
B------------------------------------------|
G-----------------5------------------------|
D-----------------5------------------------|
A---------------3--------------------------|
D-5b6-5-0-3b4-4----------------------------|

(repeat 2nd part of chorus 1 then repeat chorus 2)

for the verse 3, there is a quite counter part for the verse pattern. here it is:

GUITAR 2:
E-----------|
B--5b6-5----|
G--5b6-5----|
D-----------|
A-----------|
D-----------|

(repeat intro 4x)

Lyrics:

Chase the sun in my head
Blistered skin turning red
I can't complain
It's something to do
Cloud my mind and erase you

[Chorus:]
Since you're gone
All is wrong
Nothing feels the same down here
And if you're gone
And I'm alone
Whose heart will I scar now dear?

Fall in, fall out
Break free, break down

Feel my legs pushing through
This world I built around you
I know the blame
Is not upon you
I know the heartless things i chose

[Chorus]

Fall in, fall out
break free, break down
One look and I die
One kiss, goodbye

Drag this frown from my face
force a smile to take it's place
I can pretend that I'm not confused
And I don't need the likes of you

Fall in, fall out
Break free, break down
One look and I die
One kiss, goodbye
            
Submit corrections

comments powered by Disqus
↑ Back to top | Fuel Tabs for Scar. Lyrics for acoustic guitar and electric guitar. Tablatures and chords are parodies/interpretations of the original songs. You may use it for private study, scholarship, research or language learning purposes only