» » »

Ozone Tabs (ver.1)

Artists:  A B C D E F G H I J K L M N O P Q R S T U V W X Y Z # 

Ozone Tabs (ver.1)

Fuel
Rating:
0/5 (0 votes)

Hard to play? Try these video lessons and learn fast.
                PROPS GO TO: Timothy Maxwell

Fuel
Sunburn (1998)

Dropped-D tuning

Intro: 
 D5 /  /// // /// // /// //
                           ah, you sucker

|------------------------------|
|------------------------------|
|--------------------------3~--|
|------------------------------|
|--0-0-3-0-3-0-0-0-3-0-3-0-----|
|--0-0-3-0-3-0-0-0-3-0-3-0-----| Play this riff in verses

(Ist Verse)

Pre-Chorus:
  I'm_____ so____ alone here
|-------------------------------|
|--3--3-3--5-5-5--6-6-6--6-6-6--|
|--2--2-2--4-4-4--5-5-5--5-5-5--|
|--0--0-0--0-0-0--0-0-0--0-0-0--|
|-------------------------------|
|-------------------------------|

Chorus:
D5  F5  G5  F5              D5
I'm the one she calls ozone baby...

(2nd Verse)
(pre-chorus)
(Chorus)
Interlude:

D5/ /// /// /// // /// /// ///

 [half-time feel]
|---------------------------------|
|---------------------------------|
|---------------------------------|
|---------------------------------|
|--0--0-3h5-3-0-0--0-0-3h5-3-0-0--|
|--0--0-3h5-3-0-0--0-0-3h5-3-0-0--|  4 TIMES

 [back to speed]
|--------------------|
|--------------------|
|--------------------|
|--------------------|
|--0--3--5--6--5--3--|
|--0--3--5--6--5--3--| ABOUT 8 TIMES

(3rd Verse)
(Pre-Chorus)
(Chorus)

Just listen to the song and you'll get the hang of it.

By Timothy Maxwell  May 2, 2003
            
Hard to play? Try these video lessons and learn fast. | Correct




comments powered by Disqus
↑ Back to top | Tablatures and chords are parodies/interpretations of the original songs. You may use it for private study, scholarship, research or language learning purposes only