>
 >
Most Of All

Most Of All Guitar Tabs

Fuel - Most Of All chords, tabs, tablatures, lyrics

Guitar lessons | Add/correct | Request | Top 50 tabs Artists:  A B C D E F G H I J K L M N O P Q R S T U V W X Y Z 0-9

Most Of All Guitar Tabs – Fuel

CD, Sheet music, Poster

Do you like Most Of All? Share with your friends now
Bass TabsChordsTabsUkulele
the verse is palmuted and the chorus isnít
E-------------------------------------------------------------------------
B-------------------------------------------------------------------------
G--7-7-7-7-7-7-7-7--6-6-6-6-6-6-6-6--7-7-7-7-7-7-7-7--4-4-4-4-4-4-4-4--
D--7-7-7-7-7-7-7-7--7-7-7-7-7-7-7-7--7-7-7-7-7-7-7-7--5-5-5-5-5-5-5-5--
A--5-5-5-5-5-5-5-5--4-4-4-4-4-4-4-4--x-x-x-x-x-x-x-x--5-5-5-5-5-5-5-5
E------------------------------------7-7-7-7-7-7-7-7--3-3-3-3-3-3-3-3---



another guitar comes in and does this
E----------------------------------------------
B---------------------------------------------let each chord ring 
G-7----6---7----4----------------------------------
D-7----7---7----5---------------------------------
A-5----4---x----5---------------------------------
E----------7----3------------------------------

after  the second verse you hear this it repeats a couple of times
E-----------------------------------------|---0----0---
B--------3--------3---------3---------3---|---3----3--------
G-----2--------2---------2---------2------|---2----2---------
D-----------------------------------------|---0----0--
A--2--------0-------------------0---------|---x----0---
E----------------------3------------------|---3-------

Guitar solo
E----------------------------------------------------------------------------------
B-10-10-8-7-------------------10-10-8-7-----------------10-10-12-12-14-14-
G-------------9-7--------7h9---------------9-7-------7h9------------------------
D------------------9-7-9-------------------------9-7-9----------------------------
A---------------------------------------------------------------------------------
E---------------------------------------------------------------------------------

E-----------------------------------------
B-15-15-17-17-19-19-20-19-20-19-----------18-17-15---------p14h15p14h15-
G------------------------------------------------------------------------------------
D------------------------------------------------------------------------------------
A------------------------------------------------------------------------------------
E-----------------------------------------------------------------------------------

After the guitar solo play this
E-----------------------------------------------------------------------------------
B------------------------------------------------------------------------------------
G-----7---7----7---7-----6---6----7--6-6-6-6--7------------------------------------
D---7---7----7---7-----7---7----7----7-7-7-7--7--------------------------------
A-5--------5----------4--------4-----4-4-4-4--4--------------------------------
E------------------------------------------------------------------------------------





Comments


Popular Fuel tabs & chords
Bittersweet Bass Tabs
Hemorrage (In My Hands) Bass Tabs
Shimmer 3 Bass Tabs
Million Miles Chords
Down Inside Of You Tabs
Hemorrhage (In My Hands) Tabs
Hideaway Tabs
It's Come To This Tabs
Sunburn 2 Tabs
Shimmer Ukulele


Song lyrics



↑ Back to top | Tablatures and chords are parodies/interpretations of the original songs. You may use it for private study, scholarship, research or language learning purposes only
© 2014 AZChords.com Contact us | Privacy policy | DMCA | Add/correct tabs | Request tabs | Top 50 tabs