» » »

Fuel, I Should Have Told You Tabs (ver.1)

Artists:  A B C D E F G H I J K L M N O P Q R S T U V W X Y Z # 

I Should Have Told You Tabs (ver.1)

Fuel Tabs
 Rating:
4/5 (4 votes)
I Should Have Told You lessons Tabs too difficult? Try these video lessons and learn fast
1
                
It seems even though Brett is gone, Fuel still loves their C-D-Em combination. Toryn's 
If you want to solo, the song is in the key of C.

Tuning: Standard

INTRO RIFF
e|-------0---|
B|---0-------|
G|-----------| Repeat as Nesescary
D|-2---------|
A|-----------|
E|-----------|

VERSE RIFF
e|------0------0----------0------0-------0-------0--------0------0-|
B|---0------0---------0-------0-------0-------0--------0------0----|
G|-----------------------------------------------------------------| Repeat
D|-2-----2--------0--------0---------------------------------------|
A|---------------------------------3--------3----------------------|
E|--------------------------------------------------3-------3------|

CHORUS (powerchord version)
e|----------------------------|
B|----------------------------|
G|---5-5-5-5--7--9-9-9-9--7-7-| Repeat, then:
D|---5-5-5-5--7--9-9-9-9--7-7-|
A|---3-3-3-3--5--7-7-7-7--5-5-|
E|----------------------------|

e|-----------------------------------|
B|-----------------------------------|
G|---5-5-5-5-5-5-5---7-7-7-7-7-7-7-7-|
D|---5-5-5-5-5-5-5---7-7-7-7-7-7-7-7-|
A|---3-3-3-3-3-3-3---5-5-5-5-5-5-5-5-|
E|-----------------------------------|

CHORUS (chord version)
e|-0-0-0-0--2--0-0-0-0--2-2-|
B|-1-1-1-1--3--0-0-0-0--3-3-|
G|-0-0-0-0--2--0-0-0-0--2-2-| Repeat, then:
D|-2-2-2-2--0--2-2-2-2--0-0-|
A|-3-3-3-3--0--2-2-2-2--0-0-|
E|-0-0-0-0--0--0-0-0-0--0-0-|

e|-0-0-0-0-0-0-0---2-2-2-2-2-2-2-|
B|-1-1-1-1-1-1-1---3-3-3-3-3-3-3-|
G|-0-0-0-0-0-0-0---2-2-2-2-2-2-2-| Repeat VERSE RIFF, then CHORUS RIFF
D|-2-2-2-2-2-2-2---0-0-0-0-0-0-0-|
A|-3-3-3-3-3-3-3---0-0-0-0-0-0-0-|
E|-0-0-0-0-0-0-0---0-0-0-0-0-0-0-|

SOLO (I've worked this out on a 12-string since that was all that was around. If it's 
blame my inability to play on at 12-string).
e|-----------------|
B|-----------------|
G|--------12-------| Play for a couple seconds
D|-15-14-----15-14-|
A|-----------------|
E|-----------------|

e|--------------------------12~~~~-|
B|----------------12---14----------|
G|-------12~~-13-------------------| (~~/~~~~ Means keep struming same note)
D|-14-15---------------------------|
A|---------------------------------|
E|---------------------------------|

POST-SOLO                                            \/Palm mute about here
e|-0----2------0-------0-----2----0-----0----2---0------0-0-0-0-0--2-2-2-2-2-|
B|-1----3------0-------1-----3----0-----1----3---0------1-1-1-1-1--3-3-3-3-3-|
G|-0----2------0-------0-----2----0-----0----2---0------0-0-0-0-0--2-2-2-2-2-|
D|-2----0------2-------2-----0----2-----2----0---2------2-2-2-2-2--0-0-0-0-0-|
A|-3----0------2-------3-----0----2-----3----0---2------3-3-3-3-3--0-0-0-0-0-|
E|-0----0------0-------0-----0----0-----0----0---0------0-0-0-0-0--0-0-0-0-0-|

Repeat Chorus and TA-DAH. You have "I Should Have Told You". Enjoy.
            
Submit corrections

comments powered by Disqus
↑ Back to top | Fuel Tabs for I Should Have Told You. Lyrics for acoustic guitar and electric guitar. 1 Tablatures and chords are parodies/interpretations of the original songs. You may use it for private study, scholarship, research or language learning purposes only