» » »

Fuel, Hideaway Tabs (ver.2)

Artists:  A B C D E F G H I J K L M N O P Q R S T U V W X Y Z # 

Hideaway Tabs (ver.2)

Fuel Tabs
 Rating:
4/5 (4 votes)
Hideaway lessons Tabs too difficult? Try these video lessons and learn fast
1
                Here comes another one from the best band ever to exist, Fuel!!!  This is a great song,
it's just awesome.

Drop-D Tuning

MAIN RIFF:
e|-7--9--5--5-----5-------7--5--0h2-2-----2-----|
B|-0--0--0----0-----0-----0--0--0-----0-----0---|
G|-7--9--6------6-----6---7--6--2-------2-----2-|
D|----------------------------------------------|
A|----------------------------------------------|
D|----------------------------------------------|
repeat this throughout the whole song, except the
chorus and bridge.

GUITAR 2 VERSE:
e|---|
B|---|
G|---|
D|-0-| come in with this.. you'll hear it.
A|-0-|
D|-0-|


CHORUS:
e|-------------|
B|-------------|
G|-------------|
D|-9--7--5-5-5-| play twice
A|-9--7--5-5-5-|
D|-9--7--5-5-5-|

verse

chorus


BRIDGE: (guitar 2)
e|------------------------------|
B|------------------------------|
G|------------------------------|
D|-10----9----0----10----9----7-|
A|-10----9----0----10----9----7-|
D|-10----9----0----10----9----7-|
  "li li li..."

BRIDGE SOLO:
e|-------------------------|
B|---0--3-5-3~----3-5-3-6b-|
G|-2-----------------------|
D|-------------------------| ah cr*p i couldn't get the rest... 
A|-------------------------|  can't hear it very well.
D|-------------------------|

verse

END SOLO:
e|---2-3-2~--2-3-7b---7-------5-5b-5b-5b--2h3p2-0h2p0---------------------------
B|-3----------------8---8-7-8-------------------------3--2h3-2-0------0-3-5b-6b-
G|---------------------------------------------------------------2--2-----------
D|------------------------------------------------------------------------------
A|------------------------------------------------------------------------------
D|------------------------------------------------------------------------------

  -------------------------------/7b~--7b-3-5-3-2-2h3----2h3p2--2h3---3-2-2h3p2-
  -3-5-3~---------3-5b--3-5-3-3-------------------------------------0-----------
  ----------4-2-4---------------------------------------------------------------
  ------------------------------------------------------------------------------
  ------------------------------------------------------------------------------
  ------------------------------------------------------------------------------

  -2h3p2--2h3p2--2h3-2h3-2h3/10b--2-2~-2h3-2-2h3-2h3-2h3/10~--10-10/9~-9/7~-----
  ------------------------------------------------------------------------------
  ------------------------------------------------------------------------------
  ------------------------------------------------------------------------------
  ------------------------------------------------------------------------------
  ------------------------------------------------------------------------------

  -7/5~-5/3~-3/2~-2--2-3--5~--5-----5-5----5----5----5----5----5----5-----5-----
  ------------------------------------------------------------------------------
  ------------------------------------------------------------------------------
  -------------------------------3*-----3*---3*---3*---3*---3*---3*----3*----3*-
  ------------------------------------------------------------------------------
  ------------------------------------------------------------------------------

  -17-17/19b--19b--17-15-17-15-14-14h15p14h15-17b--17b-15-14-15-14------14----14
  -------------------------------------------------------------------15----15---
  ------------------------------------------------------------------------------
  ------------------------------------------------------------------------------
  ------------------------------------------------------------------------------
  ------------------------------------------------------------------------------

  -------------------------------------|
  -15-14h15~---15--14--10--8--7b-7-----|
  -------------------------------------|
  ----------------------------------4*-|
  -------------------------------------|
  -------------------------------------|


Geez!!!  That solo is freakin harder than it sounds. Took me quite a while to tab out. I 
wasn't sure about a few parts, but most of it should be semi-right.  E-mail me with any
corrections.
            
Submit corrections

comments powered by Disqus
↑ Back to top | Fuel Tabs for Hideaway. Lyrics for acoustic guitar and electric guitar. 1 Tablatures and chords are parodies/interpretations of the original songs. You may use it for private study, scholarship, research or language learning purposes only