» » »

Fuel, Hemorrhage (In My Hands) Bass tabs (ver.2)

Artists:  A B C D E F G H I J K L M N O P Q R S T U V W X Y Z # 

Hemorrhage (In My Hands) Bass tabs (ver.2)

Fuel Tabs
 Rating:
4/5 (4 votes)
Hemorrhage (In My Hands) lessons Tabs too difficult? Try these video lessons and learn fast
1
                Tuning: Standard (EADG)

Intro
G:----------
D:----------
A:-1--------
E:----4----2

Chorus A
G:---------------------
D:---------------------    
A:------4-4------------
E:--2--2-----4-4-1-1-1-1   

Chorus B
G:---------------------
D:---------------------    
A:------4-4------------
E:--2-2-----1-1-1-1-1--

Verse(don't play one of those 1's when playing this part)
G:------------------------[x2]
D:------------------------[x2]
A:-1-1---------------3-4-1[x2]
E:-----4----2-2----4------[x2]
after the 2nd time get rid of the (3-4-1) play the rest 4 times

Chorus w/ Fill
G:--------------------
D:--------------------
A:-----4-4-----4-3-1--
E:-2-2-----2-2-------4

Pre-Bridge
G:------------
D:------------
A:------------
E:-1-1-1-1-1-1

Sweet Progressive Bridge ("And I want it....")
G:------------------------------------------------------
D:------------------------------1--3--1-----------------
A:-------1------1--3--4--3----4-------------------------
E:-2--4----4------------------------------1---1-1-1----1

Interlude A
G:-----------------   
D:-----------------     
A:-1------------3-4
E:----4--2--4------

Interlude B 
G:------------------------------------------------------------------------
D:------------------------------------------------1-1-1-1--3-3-3-3-3-3-1-1
A:--1-1-1-1-1-1-1-1----3-3-3-3-3-3-3-3---4-4-4-4--------------------------
E:------------------------------------------------------------------------

Song Structure:
Intro
Wait a while...(Large Rest)
Chorus A
Chorus B
Verse x 6
Chorus w/ Fill
Chorus A x 2
Chorus B
Sweet Progressive Bridge
Interlude A x 3
Interlude B
Chorus w/ Fill
Chorus A x 9
            
Submit corrections

comments powered by Disqus
↑ Back to top | Fuel Bass for Hemorrhage (In My Hands). Lyrics for acoustic guitar and electric guitar. 1 Tablatures and chords are parodies/interpretations of the original songs. You may use it for private study, scholarship, research or language learning purposes only