» » »

Hemorrhage (In My Hands) Bass tabs (ver.1)

Artists:  A B C D E F G H I J K L M N O P Q R S T U V W X Y Z # 

Hemorrhage (In My Hands) Bass tabs (ver.1)

Fuel
Rating:
0/5 (0 votes)

Hard to play? Try these video lessons and learn fast.
                FUEL
Hemorrhage (In My Hands)
Tunning: Eb A D G

Intro:
--7~--5~--0~--------------------------------------------------------

Chorus I:
-------4--4--4-------2--2--2-------2-3-4--4--4----------------------
--3--3----------5--5----------3--3--------------2--2--2--2--2-------

Verse I:
----------------------3--4------------------------------------------
--7-7~--5~--3-3~--5~------------------------------------------------

Verse II:
--7-7~--5~--3-3~--5~------------------------------------------------

Chorus III:
----------4~------4-3-1-------4--4--4-------2--2--2-----------------
--5-3-0~------5~--------5-0~-----------5--5-------------------------

Chorus II:
-------2-3-4--4--4---------------------2-3-4--4--4------------------
--3--3--------------5--5-2--2--2--3--3--------------2--2--2--2--2---

Bridge: (* means play 4 times the note)
--3*-5*-7*-5*-7*-9*-10*-9*-10*-12*-14/-------2~--2~--2~--2~---------

Outro:
--7**-9**-10*-12*-14*-14/-------------------------------------------

Chorus IV:
-------2-3-4--4-6-4-3-----------------------------------------------
--3--3----------------5--5--7-5--2--2--2----------------------------

End:
--------4-4---------------------------------------------------------
--3--3------5~------------------------------------------------------

That's the order:
Intro (than you don't play the bass for a while)
Chorus I
Verse I (x2)
Verse II (x4)
Chorus III
Chorus II
Bridge
Verse I (x3)
Outro
Chorus III
Chorus IV (x7)
End
            
Hard to play? Try these video lessons and learn fast. | Correct




comments powered by Disqus
↑ Back to top | Tablatures and chords are parodies/interpretations of the original songs. You may use it for private study, scholarship, research or language learning purposes only