» » »

Hemorrhage (In My Hands) Tabs (ver.3)

Artists:  A B C D E F G H I J K L M N O P Q R S T U V W X Y Z # 

Hemorrhage (In My Hands) Tabs (ver.3)

Fuel
Rating:
0/5 (0 votes)

Hard to play? Try these video lessons and learn fast.
                I'm used to seeing on this site.
This is also my first tab so please leave comments if corrections are needed.


Intro: (W/Chorus, Distortion, and Slight Vibrato)

E|--2----x----x--|
B|--3----0----0--|
G|--4----2----0--|
D|--4----2----2--|
A|--2----0----2--|
E|--x----x----x--|


Verse 1: (W/Chorus and Clean)
E|------0---------0---------0---------0-----|
B|-----3-3-------3-3-------3-3-------3-3----|
G|----0---0-----0---0-----0---0-----0---0---|
D|---4-----4---4-----4---4-----4---4-----4--|
A|-2---------0-------------------0----------|
E|---------------------3--------------------|
    Repeat above riff during whole verse.


Bridge 1: (Still Chorus and Clean)

E|--x----0----x----x----x--|
B|--0----3----2----3----2--|
G|--0----2----2----2----2--| x2
D|--2----0----2----2----2--|
A|--2----x----0----0----0--|
E|--0----x----x----x----x--|


Chorus: (Chorus and Distortion)

E|--x----x----x----x----x----x----x--|
B|--3----7----2----2----3----7----2--|
G|--4----7----2----2----4----7----2--|
D|--5----7----2----4----5----7----2--|
A|--5----5----0----4----5----5----0--|
E|--3----x----x----2----3----x----x--|


Verse 2:

Guitar 1
E|------0---------0---------0---------0-----|
B|-----3-3-------3-3-------3-3-------3-3----|
G|----0---0-----0---0-----0---0-----0---0---|
D|---4-----4---4-----4---4-----4---4-----4--|
A|-2---------0-------------------0----------|
E|---------------------3--------------------|


Guitar 2(W/Distortion and Chorus)
E|--2----x----x----x--|
B|--3----2----3----2--|
G|--4----2----4----2--|
D|--4----2----5----2--|
A|--2----0----5----0--|
E|--x----x----3----x--|


Bridge 2: (W/Distortion and Chorus)

E|----------x----0----x----x----x----x----0----x-----|
B|----------0----3----2----3----2----0----3----2-----|
G|----------0----2----2----2----2----0----2----2-----|
D|----------2----0----2----2----2----2----0----4-----|
A|----------2----x----0----0----0----2----x----4-----|
E|--G--F#----0----x----x----x----x----0----x----2----|


Chorus: (Chorus and Distortion)

E|--x----x----x----x----x----x----x--|
B|--3----7----2----2----3----7----2--|
G|--4----7----2----2----4----7----2--|
D|--5----7----2----4----5----7----2--|
A|--5----5----0----4----5----5----0--|
E|--3----x----x----2----3----x----x--|


Build before the guitar solo:

E|------------------------------2-|  (Hold F# Chord)
B|------------------------------2-|  (Let F# Chord ring)
G|------------------------------3-|
D|--------------------2-4---4---4-|
A|------2---2-4-5-4-5-----2-4---4-|
E|--3-5---5---------------0-2---2-|


Solo: (Fades in, Distortion, and Vibrato)

Guitar 1
E|14----14----14-------------14----14----14----14-|
B|---12----12----12-15-14-12----12----12----12----|
G|------------------------------------------------|
D|------------------------------------------------|
A|------------------------------------------------|
E|------------------------------------------------|


E|---12----12----14-------14-------14-------14----|
B|10----10----15----15-14----14-12----12-14----14-|
G|------------------------------------------------|
D|------------------------------------------------|
A|------------------------------------------------|
E|------------------------------------------------|


E|---14----14-15-14-|
B|15----17----------|
G|------------------|
D|------------------|
A|------------------|
E|------------------|


Guitar 2(W/Distortion and Chorus)
E|--2----x----x----x--|
B|--3----2----3----2--|
G|--4----2----4----2--|
D|--4----2----5----2--|
A|--2----0----5----0--|
E|--x----x----3----x--|


Bridge 3: (W/Distortion and Chorus)

E|----------x----0----x----x----x----x----0----x-----|
B|----------0----3----2----3----2----0----3----2-----|
G|----------0----2----2----2----2----0----2----2-----|
D|----------2----0----2----2----2----2----0----4-----|
A|----------2----x----0----0----0----2----x----4-----|
E|--G--F#----0----x----x----x----x----0----x----2----|


Final Chorus: (W/Chorus and Distortion)

E|--x----x----x----x--|
B|--3----7----2----2--|
G|--4----7----2----2--|
D|--5----7----2----4--|
A|--5----5----0----4--|
E|--3----x----x----2--|


Play this riff towards the end of the song over chords above:
E|-------------------|
B|-------------------|
G|--6-7-6-7-6---6----|
D|------------7---7--|
A|-------------------|
E|-------------------|


Outro:

E|--x----x----x~--||
B|--3----7----2~--||
G|--4----7----2~--||
D|--5----7----2~--||
A|--5----5----0~--||
E|--3----x----x~--||
            
Hard to play? Try these video lessons and learn fast. | Correct




comments powered by Disqus
↑ Back to top | Tablatures and chords are parodies/interpretations of the original songs. You may use it for private study, scholarship, research or language learning purposes only