>
 >
Hemmorrhage

Hemmorrhage Guitar Tabs

Fuel - Hemmorrhage chords, tabs, tablatures, lyrics

Guitar lessons | Add/correct | Request | Top 50 tabs Artists:  A B C D E F G H I J K L M N O P Q R S T U V W X Y Z 0-9

Hemmorrhage Guitar Tabs – Fuel

CD, Sheet music, Poster

Do you like Hemmorrhage? Share with your friends now
Tabs

Intro:

Bm Am Gm

For the first verse there is only one guitar playing what is tabbed out below, but for 
other verses another guitar plays the progression above it.

Verse 1:
Memories are just where you leave them...
 Bm               Am              Gm                Am
eb---------0---------------0---------------0---------------0-------||
Bb-----------------------------------------------------------------||
Gb-----0-----0---0-----0-----0---0-----0-----0---0-----0-----0---0-||
Db---4---4-----4-----4---4-----4-----4---4-----4-----4---4-----4---||
Ab-2---------------0-------------------------------0---------------||
Eb---------------------------------3-------------------------------||

Drag the waters til the depths give up their dead

What did you expect to find? Was it something you left behind?

Don't you remember anything I said when I said...

Chorus:

Em      Dm        Am
Don't fall away and leave me to myself
Em      Dm        Am
Don't fall away and leave love bleeding
Gm            Dm          Am
In my hands, in my hands again. And leave love bleeding
Gm            Dm          F#m
In my hands, in my hands. Love lies bleeding.

Play the verse peice below through twice before the singing starts again

Bm               Am              Gm                Am
eb---------0---------------0---------------0---------------0-------||
Bb-----------------------------------------------------------------||
Gb-----0-----0---0-----0-----0---0-----0-----0---0-----0-----0---0-||
Db---4---4-----4-----4---4-----4-----4---4-----4-----4---4-----4---||
Ab-2---------------0-------------------------------0---------------||
Eb---------------------------------3-------------------------------||

Verse 2:

"Oh hold me now I feel contagious..."
Bm               Am              Gm                Am
eb---------0---------------0---------------0---------------0-------||
Bb-----------------------------------------------------------------||
Gb-----0-----0---0-----0-----0---0-----0-----0---0-----0-----0---0-||
Db---4---4-----4-----4---4-----4-----4---4-----4-----4---4-----4---||
Ab-2---------------0-------------------------------0---------------||
Eb---------------------------------3-------------------------------||

Am I the only place that you've left to go?

She cries her life is like some movie in black and white

Dead actors faking lines, over and over and over again she cries

Chorus:
Em      Dm        Am
Don't fall away and leave me to myself
Em      Dm        Am
Don't fall away and leave love bleeding
Gm            Dm          Am
In my hands, in my hands again. And leave love bleeding
Gm            Dm          F#m
In my hands, in my hands. Love lies bleeding.

Bridge:

Gm  Am  Bm   Am
    And I watched as
Bm  C#m  Dm  C#m
You turned away
Dm    Em   F#m2   
You don't remember,
F#m 
But I do. You never even tried
 - - - - - -
Bm  Am  Gm  Am [x4]

Chorus:
Em      Dm        Am
Don't fall away and leave me to myself
Em      Dm        Am
Don't fall away and leave love bleeding
Gm            Dm          Am
In my hands, in my hands again. And leave love bleeding
Gm            Dm          Am
In my hands, in my hands again
Gm            Dm          Am
In my hands, in my hands again oh oh oh oh

Outro:
Gm  Dm  Am [x4]

Bm   (x2440x)
Am   (5770xx)
Gm   (3550xx)
Dm   (x5770x)
Em   (0220xx)
F#m  (2440xx)
F#m2 (x9-11-11-0x)
C#m  (x4660x)





Comments


Popular Fuel tabs & chords
Empty Spaces Bass Tabs
Prove Bass Tabs
Wont Back Down Bass Tabs
Bad Day 1 Chords
Bittersweet 5 Tabs
Hemmorhage Tabs
Hemorrhage In My Hands 4 Tabs
Quarter Tabs
Leave The Meories Alone Ukulele
Million Miles Ukulele


Song lyrics



↑ Back to top | Tablatures and chords are parodies/interpretations of the original songs. You may use it for private study, scholarship, research or language learning purposes only
© 2014 AZChords.com Contact us | Privacy policy | DMCA | Add/correct tabs | Request tabs | Top 50 tabs