» » »

Fuel, Hemmorhage In My Hands Tabs (ver.1)

Artists:  A B C D E F G H I J K L M N O P Q R S T U V W X Y Z # 

Hemmorhage In My Hands Tabs (ver.1)

Fuel Tabs
 Rating:
4/5 (4 votes)
Hemmorhage In My Hands lessons Tabs too difficult? Try these video lessons and learn fast
1
                "Hemorage (In My Hands)" 
Fuel 

Intro is prechorus

Verse: Simple, once you get the transitions

-----0---------0--------0------------0---- 
----3-3------3-3------3-3--------3---3-- 
---0---0----0---0----0---0------0-----0- 
--4--------4--------4----------4---------- 
-2--------0-------------------0----------- 
-------------------3----------------------- 

Pre-Chorus: Em7 D A 
-3--------2--------0---- 
-3--------3--------2---- 
-0--------2--------2---- 
-2--------0--------2---- 
-2-----------------0---- 
-0---------------------- 

Chorus
G D A 
-3--------2--------0---- 
-3--------3--------2---- 
-0--------2--------2---- 
-0--------0--------2---- 
-2-----------------0---- 
-3----------------------
            
Submit corrections

comments powered by Disqus
↑ Back to top | Fuel Tabs for Hemmorhage In My Hands. Lyrics for acoustic guitar and electric guitar. 1 Tablatures and chords are parodies/interpretations of the original songs. You may use it for private study, scholarship, research or language learning purposes only