» » »

Fuel, Empty Spaces Bass tabs (ver.1)

Artists:  A B C D E F G H I J K L M N O P Q R S T U V W X Y Z # 

Empty Spaces Bass tabs (ver.1)

Fuel Tabs
 Rating:
4/5 (4 votes)
Empty Spaces lessons Tabs too difficult? Try these video lessons and learn fast
1
                Fuel
"Empty Spaces"
Something Like Human, 2000
_________________________

(Drop D Tuning)

intro:
G|-----------------------------|
D|-----------------------------|
A|-----------------------------|
D|-0-0-3-3-0-0h3--0-0-3-3-3h6--|

verse:
G|-----------------|
D|-----------------|
A|-----------------|
D|-0-0-0-0-0--3-3--|

verse fill (every 3rd time or so):
G|---------|                                G|--15-13-12-----|
D|-13/16---|         going into the chorus: D|-----------13--|
A|----------|
D|----------|

chorus:
G|----------------------------------------|
D|----------------------------------------|
A|----------------------------------------|
D|-0---3----8-----7-------0-----3-----5---|

after 1st chorus:
G|-----------------------|
D|-----------------------|
A|---------1-------------|
D|--0--2-3----0--2-3--5--|
            
Submit corrections

comments powered by Disqus
↑ Back to top | Fuel Bass for Empty Spaces. Lyrics for acoustic guitar and electric guitar. 1 Tablatures and chords are parodies/interpretations of the original songs. You may use it for private study, scholarship, research or language learning purposes only