>
 >
Down Inside Of You 2

Down Inside Of You 2 Guitar Tabs

Fuel - Down Inside Of You 2 chords, tabs, tablatures, lyrics

Guitar lessons | Add/correct | Request | Top 50 tabs Artists:  A B C D E F G H I J K L M N O P Q R S T U V W X Y Z 0-9

Down Inside Of You 2 Guitar Tabs – Fuel

CD, Sheet music, Poster

Do you like Down Inside Of You 2? Share with your friends now
TabsTabs v2Tabs v3
Down Inside of You
Fuel
Natural Selection

Tuning: Drop C (C G C F A D)

Key:
X- scratch
h- hammer on
p- pull off
pm |-| -palm mute
/- slide up
\- slide down
^-hold note/bend

yeah im not sure if this tab is entirely right. you could play it in drop D, but
i play it in drop C cuz the slides sound better. its your preference which one you
choose.


intro:

|------------------------------------------------------------|
|------------------------------------------------------------|
|------------------------------------------------------------|
|--7-7-8-9--9-9-9-7-7-8-9--9-9-9-7-7-8-9--9-9-9-7-7-8-9--7-3^|   times 2
|--7-7-8-9--9-9-9-7-7-8-9--9-9-9-7-7-8-9--9-9-9-7-7-8-9--7-3^|
|--7-7-8-9--9-9-9-7-7-8-9--9-9-9-7-7-8-9--9-9-9-7-7-8-9--7-3^|
          hold the note at the 3 for just a bit, then continue



verse 1:

|------------------------------------------------------|
|------------------------------------------------------|
|------------------------------------------------------|
|-7^\-10b^-7-7-7-10b^-7-7-7--7^\-10b^-7-7-7-10b^-7-7-7-|
|-7^\-10b^-7-7-7-10b^-7-7-7--7^\-10b^-7-7-7-10b^-7-7-7-|
|-7^\-10b^-7-7-7-10b^-7-7-7--7^\-10b^-7-7-7-10b^-7-7-7-|

|------------------------------------------------------|
|------------------------------------------------------|
|------------------------------------------------------|
|-7^\-10b^-7-7-7-10b^-7-7-7--7^\-10b^-7-7-7-10b^-7-7-7-|
|-7^\-10b^-7-7-7-10b^-7-7-7--7^\-10b^-7-7-7-10b^-7-7-7-|
|-7^\-10b^-7-7-7-10b^-7-7-7--7^\-10b^-7-7-7-10b^-7-7-7-|


chorus:

|----------------------------------------------------|
|----------------------------------------------------|  repeat once
|----------------------------------------------------|
|-3-X-X-X-7^--3-X-X-X-7^--3-X-X-X-7^--3-X-X-X-7^7-5^-|  hold the last bend on
|-3-X-X-X-7^--3-X-X-X-7^--3-X-X-X-7^--3-X-X-X-7^7-5^-|  7 for a real little
|-3-X-X-X-7^--3-X-X-X-7^--3-X-X-X-7^--3-X-X-X-7^7-5^-|  bit


bridge to verse two:

|------------------------------------------------------------|
|------------------------------------------------------------|
|------------------------------------------------------------|
|--7-7-8-9--9-9-9-7-7-8-9--9-9-9-7-7-8-9--9-9-9-7-7-8-9--7-3^|   repeat once
|--7-7-8-9--9-9-9-7-7-8-9--9-9-9-7-7-8-9--9-9-9-7-7-8-9--7-3^|
|--7-7-8-9--9-9-9-7-7-8-9--9-9-9-7-7-8-9--9-9-9-7-7-8-9--7-3^|
          hold the note at the 3 for just a bit, then continue


verse two:

|------------------------------------------------------|
|------------------------------------------------------|
|------------------------------------------------------|
|-7^\-10b^-7-7-7-10b^-7-7-7--7^\-10b^-7-7-7-10b^-7-7-7-|
|-7^\-10b^-7-7-7-10b^-7-7-7--7^\-10b^-7-7-7-10b^-7-7-7-|
|-7^\-10b^-7-7-7-10b^-7-7-7--7^\-10b^-7-7-7-10b^-7-7-7-|

|------------------------------------------------------|
|------------------------------------------------------|
|------------------------------------------------------|
|-7^\-10b^-7-7-7-10b^-7-7-7--7^\-10b^-7-7-7-10b^-7-7-7-|
|-7^\-10b^-7-7-7-10b^-7-7-7--7^\-10b^-7-7-7-10b^-7-7-7-|
|-7^\-10b^-7-7-7-10b^-7-7-7--7^\-10b^-7-7-7-10b^-7-7-7-|


chorus:

|----------------------------------------------------|
|----------------------------------------------------|  repeat once
|----------------------------------------------------|
|-3-X-X-X-7^--3-X-X-X-7^--3-X-X-X-7^--3-X-X-X-7^7-5^-|  hold the last bend on
|-3-X-X-X-7^--3-X-X-X-7^--3-X-X-X-7^--3-X-X-X-7^7-5^-|  7 for a real little
|-3-X-X-X-7^--3-X-X-X-7^--3-X-X-X-7^--3-X-X-X-7^7-5^-|  bit


part that starts with "so i'll fly, far away.."

|-----------------------------------------------------|
|-----------------------------------------------------|
|-----------------------------------------------------|
|-3-3-3-3--3-3--3-3--3-3-3--7-7-7-7--7-7--7-7--7-7-7--|
|-3-3-3-3--3-3--3-3--3-3-3--7-7-7-7--7-7--7-7--7-7-7--|
|-3-3-3-3--3-3--3-3--3-3-3--7-7-7-7--7-7--7-7--7-7-7--|
        pm|----------------|        |---------------|

|----------------------------------------------------------|  
|----------------------------------------------------------| 
|----------------------------------------------------------| 
|-3-3-3-3--3-3--3-3--3-3-3--7-7-7-7--7-7-7--5-5-5-5--5-5-5-| 
|-3-3-3-3--3-3--3-3--3-3-3--7-7-7-7--7-7-7--5-5-5-5--5-5-5-| 
|-3-3-3-3--3-3--3-3--3-3-3--7-7-7-7--7-7-7--5-5-5-5--5-5-5-|   
        pm|----------------|        |-----|         |-----|  
repeat once, then add the part below to the end..

|----|
|----|
|----|
|-3^-|
|-3^-|
|-3^-|


then theres the little part with no music


chorus:

|----------------------------------------------------|
|----------------------------------------------------|  repeat four times
|----------------------------------------------------|
|-3-X-X-X-7^--3-X-X-X-7^--3-X-X-X-7^--3-X-X-X-7^7-5^-|  hold the last bend on
|-3-X-X-X-7^--3-X-X-X-7^--3-X-X-X-7^--3-X-X-X-7^7-5^-|  7 for a real little
|-3-X-X-X-7^--3-X-X-X-7^--3-X-X-X-7^--3-X-X-X-7^7-5^-|  bit


outro:

|------------------------------------------------------------|
|------------------------------------------------------------|
|------------------------------------------------------------|
|--7-7-8-9--9-9-9-7-7-8-9--9-9-9-7-7-8-9--9-9-9-7-7-8-9--7-3^| repeat four
|--7-7-8-9--9-9-9-7-7-8-9--9-9-9-7-7-8-9--9-9-9-7-7-8-9--7-3^| times
|--7-7-8-9--9-9-9-7-7-8-9--9-9-9-7-7-8-9--9-9-9-7-7-8-9--7-3^|
          hold the note at the 3 for just a bit, then continue





Comments


Popular Fuel tabs & chords
Wasted Time 1 Chords
Bad Day Full Tabs
Falls On Me (Intro) Tabs
Falls On Me 2 Tabs
Hemmorhage (Solo) Tabs
Hemmorrage 2 Tabs
Innocent 4 Tabs
Last Time 5 Tabs
Sunburn Tabs
Sunburn 2 Tabs


Song lyrics



↑ Back to top | Tablatures and chords are parodies/interpretations of the original songs. You may use it for private study, scholarship, research or language learning purposes only
© 2014 AZChords.com Contact us | Privacy policy | DMCA | Add/correct tabs | Request tabs | Top 50 tabs