» » »

Fuel, Days With You Tabs (ver.1)

Artists:  A B C D E F G H I J K L M N O P Q R S T U V W X Y Z # 

Days With You Tabs (ver.1)

Fuel Tabs
 Rating:
4/5 (6 votes)
Days With You lessons Tabs too difficult? Try these video lessons and learn fast
1
                
Dropped-D Tuning
CHORDS:
G5: (verses) 5-5-5-7-8-X
F5: (verses) 3-3-3-5-6-X
Bb5: 8-8-8-10-X-X
C5: 10-10-10-12-X-X
G5: (chorus) 5-5-5-X-X-X
G#5: 6-6-X-X-X-X
A5: 5-5-X-X-X-X
Eb5: 1-1-1-3-X-X
F5: (chorus) 3-3-3-X-X-X

Intro:
   G5
|-----------------------------------------------------------------|
|-7-7-7-7-8-8-8-8-7-7-7-7-8-8-8-8-7-7-7-7-8-8-8-8-7-7-7-7-8-8-8-8-|
|-7-7-7-7-7-7-7-7-7-7-7-7-7-7-7-7—7-7-7-7-7-7-7-7-7-7-7-7-7-7-7-7-|
|-5-5-5-5-5-5-5-5-5-5-5-5-5-5-5-5-5-5-5-5-5-5-5-5-5-5-5-5-5-5-5-5-|
|-5-5-5-5-5-5-5-5-5-5-5-5-5-5-5-5-5-5-5-5-5-5-5-5-5-5-5-5-5-5-5-5-|
|-5-5-5-5-5-5-5-5-5-5-5-5-5-5-5-5-5-5-5-5-5-5-5-5-5-5-5-5-5-5-5-5-|

Verse 1:
  Rains falls down like your alibi 
   G5                             F5
|-----------------------------------------------------------------|
|-7-7-7-7-8-8-8-8-7-7-7-7-8-8-8-8-5-5-5-5-6-6-6-6-5-5-5-5-6-6-6-6-|
|-7-7-7-7-7-7-7-7-7-7-7-7-7-7-7-7—5-5-5-5-5-5-5-5-5-5-5-5-5-5-5-5-|
|-5-5-5-5-5-5-5-5-5-5-5-5-5-5-5-5-3-3-3-3-3-3-3-3-3-3-3-3-3-3-3-3-|
|-5-5-5-5-5-5-5-5-5-5-5-5-5-5-5-5-3-3-3-3-3-3-3-3-3-3-3-3-3-3-3-3-|
|-5-5-5-5-5-5-5-5-5-5-5-5-5-5-5-5-3-3-3-3-3-3-3-3-3-3-3-3-3-3-3-3-|
(Continue chord structures)

G5                         F5
Thought you held the stars in the sky
     Bb5     C5
Till I found your love, was a 
  
  lie___
  D5    F5    D5    F5/G#5/G5/F5 D5 C5 A5 F5 D5 F5 D5
|--------------------------------------------------|
|--------------------------------------------------|
|--------------------------------------------------|
|-0-0-0-3-3-3-0-0-0--------------------------------|
|-0-0-0-3-3-3-0-0-0-0-3h6-5-3-12-10-7-5-3-0-3-0----|
|-0-0-0-3-3-3-0-0-0-0-3h6-5-3-12-10-7-5-3-0-3-0----|

Chorus:
    Bb5     C5               G5
And I lost the life, and the days with you my love

Verse 2:
G5                   F5
All your lines I can not erase
G5                     F5
Pull your fingers from round my brain
    Bb5          C5         D5 F5 D5 F5/G#5/G5/F5   D5 C5 A5 F5 D5 F5 D5    
But you put this hate, in my eyes

Chorus:
    Bb5        C5              G5
And I love the scars, from the days with you my love

Interlude:
  (G)
|-------------------------------------|
|----13-12-------------13-12----------|
|-12-------10-11-12----------10-11-12-|
|-------------------------------------|
|-------------------------------------|
|-------------------------------------|

  (G)
|-------------------------------------|
|----13-12-------------13b-12/--------|
|-12-------10-11-12-------------------|
|-------------------------------------|
|-------------------------------------|
|-------------------------------------|

Guitar Solo:
  G5               F5
|---------------------------------|
|--------------12-12b---10-8h10p8-|
|-4-7-4-7/9-7---------------------|
|---------------------------------|
|---------------------------------|
|---------------------------------|
  G5                     F5
|-----------------------------------------------------|
|-13-13-12-13-15---15v~--15-15-12-15---15-12p10p8-----|
|-------------------------------------------------10--|
|-----------------------------------------------------|
|-----------------------------------------------------|
|-----------------------------------------------------|

     Bb5     C5             D5 F5 D5 F5/G#5/G5/F5   D5 C5 A5 F5 D5 F5 D5    
Till I found your love, was a lie

Chorus:
    Bb5        C5            G5
But I love the scars, of the days with you my love
Eb5          F5        G5~
Hey,____ hey,_____ ahh,____

Outro:
 (G)
|------------------------------------|
|-13-13-13-13-13---12-12-12-12-12-12-|
|------------------------------------|
|------------------------------------|
|------------------------------------|
|------------------------------------|
(w/guitar feedback and drums; fade out)
            
Submit corrections

comments powered by Disqus
↑ Back to top | Fuel Tabs for Days With You. Lyrics for acoustic guitar and electric guitar. 1 Tablatures and chords are parodies/interpretations of the original songs. You may use it for private study, scholarship, research or language learning purposes only