» » »

Daniel Tabs (ver.2)

Artists:  A B C D E F G H I J K L M N O P Q R S T U V W X Y Z # 

Daniel Tabs (ver.2)

Fuel
Rating:
0/5 (0 votes)

Hard to play? Try these video lessons and learn fast.
                This is my first attempt at tabbing out a song, so it might be kinda off. The rest of the song (the bridge, solo, or wutever) is just like the verse and the chorus, just takes some improvising.


Intro:

-0-0----------2------2--------3-3-------------0
-1-1--h3p0--3/4--3------------0-0-------------1
-0-0----------2---------------0-0-------------2
-2-2----------0---------------0-0----------3--2
-3-3----------0----------0----2-2--------3----0
-0-0----------0--------0------3-3---2/3-------0

Verse:

-0-1--2/11-11-11-11--3-3--0-0--0--0--2-2--3-3--0-0-0
-1-1--3/12-12-12-12--0-0--2-2--1--1--3-3--0-0--2-1-1
-0-0--2/11-11-11-11--0-0--2-2--2--0--2-2--0-0--2-2-2
-2-2--0--------------0-0--2-2--2--2--0-0--0-0--2-2-2
-3-3--0--------------2-2--0-0--0--3--0-0--2-2--0-0-0
-0-0--0--------------3-3--0-0--0--0--0-0--3-3--0-0—0

Chorus: (repeat verse)
            
Hard to play? Try these video lessons and learn fast. | Correct




comments powered by Disqus
↑ Back to top | Tablatures and chords are parodies/interpretations of the original songs. You may use it for private study, scholarship, research or language learning purposes only