» » »

Ft Island, Severely Tabs (ver.1)

Artists:  A B C D E F G H I J K L M N O P Q R S T U V W X Y Z # 

Severely Tabs (ver.1)

Ft Island Tabs
Rating:
0/5 (0 votes)
Severely lessons Tabs too difficult? Try these video lessons and learn fast
                this is my first tab :)

* - palm mute
b - bend
s - slide

Intro x2
e|-------------------------------|
B|-------------------10-9--------|
G|--------8-9-8-----------9------|
D|-9-11---------9----------------|
A|-------------------------------|
E|-------------------------------|

(Verse 1 x2)(Guitar 1: clean)
e|----------------------------|
B|------------------------2---|
G|--1-----4-----6---4-----2---|
D|--2-----4-----6---4-----2---|
A|--2-----2-----4---2---------|
E|----------------------------|

(Verse 1)(Guitar 2: enter at the 2nd time)
e|---12-----11-----12-----12--------|
B|----------------------------------|
G|----------------------------------|
D|----------------------------------|
A|----------------------------------|
E|----------------------------------|

Pre-Chorus:
e|---------------------------------|
B|---------------------------------|
G|---------------------------------|
D|---*4-----*6-----*7-----*9-------|
A|---*4-----*6-----*7-----*9-------|
E|---*2-----*4-----*5-----*7-------|


Chorus:
e|----------------------------------|
B|--------------------------2-------|
G|--1-----4-----6-----4-----2---4---|
D|--2-----4-----6-----4-----2---4---|
A|--2-----2-----4-----2---------2---|
E|----------------------------------|

then:

e|----------------------------------------------------|
B|------------------------------2---------------------|
G|--1-----4-----5-----6---4-----2-----------------4---|
D|--2-----4-----5-----6---4-----2-----6-----4-----4---|
A|--2-----2-----3-----4---2-----------6-----4-----2---|
E|------------------------------------4-----2---------|

Repeat Intro x1

(Verse 2 x1)(Guitar 1: clean)
e|----------------------------|
B|------------------------2---|
G|--1-----4-----6---4-----2---|
D|--2-----4-----6---4-----2---|
A|--2-----2-----4---2---------|
E|----------------------------|

(Verse 2)(Guitar 2)
e|---------------12------11---------|
B|----------------------------------|
G|----------------------------------|
D|----------------------------------|
A|----------------------------------|
E|----------------------------------|

(Repeat Pre-chorus)

(Repeat Chorus)

Bridge:
e|-------------------------------------------------------------­--------|
B|-------------------------------------------------------------­--------|
G|--6---x---xx----------------4---x---xx---9---11---8----6-------4------|
D|--6---x---xx---7---x---xx---4---x---xx---x---x----x----6---7---4------|
A|--4---x---xx---7---x---xx---2---x---xx---7---9----6----4---7---2------|
E|---------------5---x---xx----------------------------------5------­---|


Solo:
e|------------------------------------|
B|-12b---12--9------------------------|
G|----------------11--9---------------|
D|-----------------------11--9--------|
A|------------------------------11----|
E|------------------------------------|

e|---------------------------------14-----------------------------------|
B|---------------------14--16--16b----16b-16b-16b-16-14-16--­-----------|
G|-----------------------12--12-----------------------------­---­--13---|
D|----11--13---13s15-----------------------------------------­---­------|
A|-*11-*11--*11-----*11----------------------------------------­--------|
E|-------------------------------------------------------­­-------------|

e|--------------------16-------16----16b-16-14-13------|
B|-------11-13-14--13----14-12----------------------14-|
G|----10-----------------------------------------------|
D|-----------------------------------------------------|
A|-----------------------------------------------------|
E|-----------------------------------------------------|

e|------------------------------------1­4-15-17--|
B|----------------------------14-17--­-----------|
G|-------------------14-16-------­---------------|
D|-----------14-16----------------­--------------|
A|----14-16---------------------­----------------|
E|-17---------------------------­----------------|

(After solo, before going back to chorus)
e|-------------------------------|
B|-------------------------------|
G|---------------------4---------|
D|--*5-----*7----------4---------|
A|--*5-----*7----------2---------|
E|--*3-----*5--------------------|

(Repeat Chorus)

Outro:
e|---------------------4-----|
B|---------------------5-----|
G|--------8-9-8--------4-----|
D|-9-11----------------------|
A|---------------------------|
E|---------------------------|
            
Submit corrections

comments powered by Disqus
↑ Back to top | Ft Island Tabs for Severely. Lyrics for acoustic guitar and electric guitar. Tablatures and chords are parodies/interpretations of the original songs. You may use it for private study, scholarship, research or language learning purposes only