>
 >
I Hope

I Hope Guitar Tabs

Ft Island - I Hope chords, tabs, tablatures, lyrics

Guitar lessons | Add/correct | Request | Top 50 tabs Artists:  A B C D E F G H I J K L M N O P Q R S T U V W X Y Z 0-9

I Hope Guitar Tabs – Ft Island

CD, Sheet music, Poster

Do you like I Hope? Share with your friends now
ChordsTabsUkulele
Ft. Island--I hope
Standard tuning- EADGBE

This is the tab for the full song with the plucking, power chords and
but there was no tab, so I just thought of making one. I hope it helps
you guys.

INTRO:

Guitar 1:
E----------------------------------------------------------------------------------|
A----------------------------------------------------------------------------------|
D----------------------------------------------------------------------------------|
G-----------4--------4----------4-------4-------4-------4--------------------------|
B----5--4-----5--4------4/5--4-----5--4----5--4----5--4-----4/5--4-4--7-7--5-4-4---|
e----------------------------------------------------------------------------------|

Guitar 2:
                                                                                    (Mute)
E-----------------6---------------------------------(6)-(6)-(6)-(6)-(6)-(6)-(6)-(6)-----|
A---2----4--4-----8----8--8---8---4---2--2----4--4--(8)-(8)-(8)-(8)-(8)-(8)-(8)-(8)--6--|
D---4----6--6-----8----6--6---6---6---4--4----6--6--(8)-(8)-(6)-(6)-(8)-(8)-(8)-(8)--8--|
G---4----6--6----------6--6---6---6---4--4----6--6-----------------------------------8--|
B---------------------------------------------------------------------------------------|
e---------------------------------------------------------------------------------------|

VERSE 1:

Guitar 1:  Play this 3 times during the verse

E----------------------------------------------------------------------------------------------|
A---4---------------------4----------------------4-----------------------4---------------------|
D-------4-----------4--------4------------4--------4--------------4--------4----------------4--|
G----------6-----6--------------6-----6----------------6------6----------------6---------6-----|
B-------------7---------------------6-----------------------4----------------------7--6--------|
e----------------------------------------------------------------------------------------------|

Guitar 2: To be played mute.
      (Strum 8 times for each power chord)
E--4--4--4--4---6--6--6--6---5--5--5--5----------------|
A--6--6--6--6---8--8--8--8---7--7--7--7---5--5--5--5---|
D--6--6--6--6---8--8--8--8---7--7--7--7---7--7--7--7---|   Play this 3 times
G-----------------------------------------7--7--7--7---|
B------------------------------------------------------|
e------------------------------------------------------|

then play this: it is also mute
    (strum this 16 times)        (strum this 8 times)
E---1--1--1--1--1--1--1--1------------------------|
A---3--3--3--3--3--3--3--3---1--1--1--1--1--(1)---|
D---3--3--3--3--3--3--3--3---3--3--3--3--3--(3)---|the last strum is not to be played
G----------------------------3--3--3--3--3--------|(3)- mute
B-------------------------------------------------|
e-------------------------------------------------|

CHORUS:
     (Strum up and down 6 times for each chord.)
E-----------------------6--6--6------------------|
A---2--2--2---4--4--4---8--8--8---6--6--6--------|
D---4--4--4---6--6--6---8--8--8---8--8--8--------|     Play this 4 times
G---4--4--4---6--6--6-------------8--8--8--------|
B------------------------------------------------|
e------------------------------------------------|

VERSE 2:  It is same as verse 1.

CHORUS:  same as before.

BRIDGE: no guitar played, other instruments are played.
 When the bassist, Jaejin starts singing play this:
        (strum up and down 6 times for each chord)
E---4--4--4---6--6--6---3--3--3--------------|
A---6--4--6---8--8--8---5--5--5---3--3--3----|
D---6--6--6---8--8--8---5--5--5---5--5--5----|     Play this 2 times
G---------------------------------5--5--5----|
B--------------------------------------------|
e--------------------------------------------|

SOLO: I know that the solo started when the bassist, Jaejin started singing
         but I only did the solo after he finished singing, when the lead guitarist
         comes. Anyz it's 90% accurate so no worries.


E--------------------------------------------------------------------------------|
A-----------------------------------------------10--8--6--5--------------10------|
D---8--10----------------------------------8-----------------6/8--8-8-------8----|
G-----------8--10--10/12b-10--8--7h8---------------------------------------------|
B--------------------------------------------------------------------------------|
e--------------------------------------------------------------------------------|

E--11--13--11--------------------------------------------------------------------------------|
A-----------------11--13------13-------------------------------------------------------------|
D---------------------------11---------------------------------------------------------------|
G-------------------------------------9--11--------------------------------------------------|
B----------------------------------------------10--12---------------------------------11--8--|
e---------------------------------------------------------11h13-13/15--13-11-10--------------|

E---12--14-----------------------------------------------------------------------------|
A------------12--14------14------------------------------------------------------------|
D----------------------12------12--14--------------------------------------------------|
G-----------------------------------------12--13---------------------------------------|
B---------------------------------------------------11--13-----------------------------|
e--------------------------------------------------------------11--13--15--16--18^-----|

 Well that was the solo, pretty simple. I got the solo tab from E-chords.com.
 But I made a few changes. After the solo the chorus chords are not played
 So play this:

    (strum up and down 6 times for each chord)
E-----3--5--5---5--7--7---2--4--4---7--9--9---|
A-----3--5--5---5--7--7---2--4--4---7--9--9---|
D-----3--5--5---5--7--7---2--4--4---7--9--9---|  Play this 8 times.
G---------------------------------------------|
B---------------------------------------------|
e---------------------------------------------|

That was the tab. I hope it helps you guys.
Please rate and comment. If you know where I can find
other tabs of Ft. island. Please tell me. Thanks..
Cheers.





Comments


Popular Ft Island tabs & chords
Treasure Chords
You Are My Life Chords
A Mans First Love Leads Him To His Grave Ukulele
After Love Ukulele
Baby Love Ukulele
Even For 1 Minute Or 1 Second Ukulele
I Wish Ukulele
Love Sick Ukulele
Severely Ukulele
Trouble Maker Ukulele


Song lyrics



↑ Back to top | Tablatures and chords are parodies/interpretations of the original songs. You may use it for private study, scholarship, research or language learning purposes only
© 2014 AZChords.com Contact us | Privacy policy | DMCA | Add/correct tabs | Request tabs | Top 50 tabs