» » »

Freefaller, Do This Do That Tabs (ver.1)

Artists:  A B C D E F G H I J K L M N O P Q R S T U V W X Y Z # 

Do This Do That Tabs (ver.1)

Freefaller Tabs
Rating:
0/5 (0 votes)
Do This Do That lessons Tabs too difficult? Try these video lessons and learn fast
                hi guys, this is my first tab so dont hate me if i get it wrong :)i couldnt find any 
for this anywhere on the internet so i used the chord diagrams and the song to help me.

standard tuning
2 guitars but sounds ok with just 1 guitar

intro

|--------------------|
|--------------------|
|--5-x-------/7--/9--|
|--5-x-5-3-----------|
|--3-x-5-3-----------|
|------3-1-----------|

verse (palm muted) guitar 1

|--------------------|
|--------------------|
|--5-x-------/7--/9--|
|--5-x-5-3-----------|
|--3-x-5-3-----------|
|------3-1-----------|

guitar 2 (palm muted)

|--------------------|
|--------------------|
|--5-x---------------|
|--5-x-5-3-----------|
|--3-x-5-3-----------|
|------3-1-0-1-0-1-0-|

prechorus (palm muted) guitar 1

|-------------------------------------------------------------------------|
|-------------------------------------------------------------------------|
|--5555555555555555------------------5555555555555555---------------------|
|--5555555555555555-5555555555555555-5555555555555555-3333333333333333/5--|
|--3333333333333333-5555555555555555-3333333333333333-3333333333333333/5--|
|-------------------3333333333333333------------------1111111111111111/3--|

im not sure about the prechorus for guitar 2 so i wont tab it

Chorus X2 guitar 1

|------------------------------------------------------------------------|
|------------------------------------------------------------------------|
|--5555555555555555------------------------------------------------------|
|--5555555555555555--5555555555555555--33333333333333333333333333333333--|
|--3333333333333333--5555555555555555--33333333333333333333333333333333--|
|--------------------3333333333333333--11111111111111111111111111111111--|

cant work out the bit over the top which would be guitar 2's part

bridge same as prechorus but with this added on at the end

|--------------------|
|--------------------|
|--------------------|
|--3--3--3-----------|
|--3--3--3-----------|
|--1--1--1-----------|

3rd verse

the first guitar part changes here and i dont know it but the second guitar part is the same

guitar 2

|--------------------|
|--------------------|
|--5-x---------------|
|--5-x-5-3-----------|
|--3-x-5-3-----------|
|------3-1-0-1-0-1-0-|

thats the tab! enjoy and add corrections if u know them
            
Submit corrections

comments powered by Disqus
↑ Back to top | Freefaller Tabs for Do This Do That. Lyrics for acoustic guitar and electric guitar. Tablatures and chords are parodies/interpretations of the original songs. You may use it for private study, scholarship, research or language learning purposes only