» » »

Free Energy, Something In Common Tabs (ver.1)

Artists:  A B C D E F G H I J K L M N O P Q R S T U V W X Y Z # 

Something In Common Tabs (ver.1)

Free Energy Tabs
 Rating:
4.2/5 (5 votes)
Something In Common lessons Tabs too difficult? Try these video lessons and learn fast
                INTRO:

Geoff Bucknum (rhythm guitar): 
   A    D    F#m    D
e|-x----2-----2-----2---| 
B|-2----3-----2-----3---| 
G|-2----2-----2-----2---| 
D|-2----0-----4-----0---| 
A|-0----x-----4-----x---|  
E|-x----x-----2-----x---|
(play x2)

Scott Wells (lead):
   A   F#m    D
e|-5----9-----10---| 
B|-5----10----10---| 
G|-6----11----11---| 
D|-7----11----12---| 
A|-7----9-----12---|
E|-5----x-----10---|
(x8, one cycle for every chord geoff plays)


VERSE:

(rhythm guitar)
   A    C
e|-5----10--| 
B|-5----10--| 
G|-6----11--| 
D|-7----12--| 
A|-x----x---|
E|-x----x---|

(lead riff)
E|-----------|----12-----|---------|---------|
B|-(10)(10)--|--14---10~-|---------|---------|
G|-(11)(11)--|-----------|---------|---------|
D|-----------|-----------|---------|---------|
A|-----------|-----------|---------|---------|
E|-----------|-----------|---------|---------|
() = slightly muted, chuckies on electric

Theres a bit more.. but I'll figure it out later, --^ is essentially the pattern.


CHORUS:

(rhythm guitar): 
   A    D    F#m    D
e|-x----2-----2-----2---| 
B|-2----3-----2-----3---| 
G|-2----2-----2-----2---| 
D|-2----0-----4-----0---| 
A|-0----x-----4-----x---|  
E|-x----x-----2-----x---|

(lead):
   A   F#m    D
e|-5----9-----10---| 
B|-5----10----10---| 
G|-6----11----11---| 
D|-7----11----12---| 
A|-7----9-----12---|
E|-5----x-----10---|


There are a few solos.. I haven't figured them out yet but..

The one around 2:40 happens between the 7-9th frets and it's basically some scale. 
I will add it later

The one around 4:15 is between the 12-14th frets, another scale...

This is all I got but I will add more as I learn more!
            
Submit corrections

comments powered by Disqus
↑ Back to top | Free Energy Tabs for Something In Common. Lyrics for acoustic guitar and electric guitar. Tablatures and chords are parodies/interpretations of the original songs. You may use it for private study, scholarship, research or language learning purposes only