>
 >
Dream City

Dream City Bass Tabs

Free Energy - Dream City chords, tabs, tablatures, lyrics

Guitar lessons | Add/correct | Request | Top 50 tabs Artists:  A B C D E F G H I J K L M N O P Q R S T U V W X Y Z 0-9

Dream City Bass Tabs – Free Energy

CD, Sheet music, Poster

Do you like Dream City? Share with your friends now
Bass TabsChordsUkulele
------------------------------------------------------------------------------
                             FREE ENERGY - DREAM CITY
-----------------------------------------------------------------------------
INTRO(REPEAT THIS FOR A WHILE)
G|---------------------------------------------------------------------------|
D|-2-2-2-2-------------------------------------------------------------------|
A|---------------------------------------------------------------------------|
E|---------------------------------------------------------------------------|
MAIN PART
G|---------------------------------------------------------------------------|
D|-2-2-2-2-------------------------------------------------------------------|
A|---------4-4-4-4-0-0-0-0-2-2-2-2-------------------------------------------|
E|---------------------------------------------------------------------------|
SLOW PART
G|---------------------------------------------------------------------------|twelve
D|-7\2~/--7/12~\--7\2~---7~--------------------------------------------------|
A|---------------------4/----------------------------------------------------|
E|---------------------------------------------------------------------------|
AFTER THE FIRST SLOW PART COME IN WITH THE PART LABELED "INTRO" AND FOR THE NANINA 
PART COME IN WITH THE SECTION LABELED "MAIN PART"





Comments


Popular Free Energy tabs & chords
Dark Trance Chords
Dream City Chords
Bang Pop Tabs
Free Energy Tabs
Something In Common Tabs
Dark Trance Ukulele
Dream City Ukulele


Song lyrics



↑ Back to top | Tablatures and chords are parodies/interpretations of the original songs. You may use it for private study, scholarship, research or language learning purposes only
© 2014 AZChords.com Contact us | Privacy policy | DMCA | Add/correct tabs | Request tabs | Top 50 tabs