» » »

Freddie Aguilar, Himig Tabs (ver.1)

Artists:  A B C D E F G H I J K L M N O P Q R S T U V W X Y Z # 

Himig Tabs (ver.1)

Freddie Aguilar Tabs
 Rating:
4/5 (4 votes)
Himig lessons Tabs too difficult? Try these video lessons and learn fast
1
                -------------------------------------------------------------------------------
-------------------------------------------------------------------------------

Tuning: EADGBe

This is just my "version". It's not exact as the one in his Album; I ear-tabbed this
NOBODY, and I mean NOBODY has a tab of this anywhere on the internet.. EVEN the LYRICS 
this song, NO other place in the internet can you find the lyrics to this song. I just 
to the cd, then jot down what he's singing...

Freddie Aguilar - Himig

Verse:

     Em                               Am               Em
e|--0--------0--------0--------0--------0--------0--------0--------0--------|
B|--0----0---0----0---0----0---0----0---1----0---1----0---0----0---0----0---|
G|-----0--------0--------0--------0--------0--------0--------0--------0-----|
D|--------------------------------------------------------------------------|
A|--2--------2--------2--------2--------0--------0--------2--------2--------|
E|--------------------------------------------------------------------------|
    Sana'y buksan mo ang iyong damdamin, Mga kamay ay dinggin mo..

(repeat as many times as needed for verse same chords and fingerings)

Chorus:

Dm                 Am
Oh, dinggin mo ang himig.
Dm                    Am          Em(strum once) then Riff
Oh, dinggin mo ang himig, aawitin sayo habang merong tinig..

Verse
Chorus
End

Riff:

e|-0---------------------------------|
B|-0---------------------------------|
G|-0---------------------------------|
D|-2---------------------------------|
A|-2--3---2---0----------------------|
E|-0--------------3---2---3-2-0------|

| /  slide up
| \  slide down
| h  hammer-on
| p  pull-off
| ~  vibrato
| +  harmonic
| x  Mute note
===============================================================================
            
Submit corrections

comments powered by Disqus
↑ Back to top | Freddie Aguilar Tabs for Himig. Lyrics for acoustic guitar and electric guitar. 1 Tablatures and chords are parodies/interpretations of the original songs. You may use it for private study, scholarship, research or language learning purposes only