>
 >
Pass It Along

Pass It Along Guitar Tabs

Frank Turner - Pass It Along chords, tabs, tablatures, lyrics

Guitar lessons | Add/correct | Request | Top 50 tabs Artists:  A B C D E F G H I J K L M N O P Q R S T U V W X Y Z 0-9

Pass It Along Guitar Tabs – Frank Turner

CD, Sheet music, Poster

Do you like Pass It Along? Share with your friends now
Tabs
e-------------------------------------------|
b-3-3-3-3-3-3-------------------------------|this is a guess                 
g-0h2-2-2-2-2p0---0---0-----------------0---|what frank plays but it sounds
d-0-0-0-0-0-----4---4---4-2-0h2p0h2p0-------|ok. Listen to him descending
a-------------------------------------3---3-|down to get the strumming right
e-------------------------------------------|
(Riff 1)

e-3-----------------------------------------------------|
b-3---------------------3p2-0h2p0---0-------------------|
g-0-------------------------------2---2-0h2p0---0-------|
d-0-(strum a few times)-----------------------4---4-2p0-|
a-2-----------------------------------------------------|
e-3-----------------------------------------------------|
(Riff 2)


Somewhere in the back bar by the side of a motorway
Riff 1           Riff 1          Riff 2    Riff 1

  Someone takes a breath and takes the stage, then starts to play
  Am                         G                               D
e-0--------------------------3-------------------------------2---|
b-1--------------------------3-------------------------------3---|
g-2--------------------------0-------------------------------2---|
d-2--------------------------0-------------------------------0---|
a-0--------------------------2-----------------------------------|
e----------------------------3-----------------------------------|

In the back of a thousand bars and by the side of a thousand roads
       Riff 1             Riff 1          Riff 2             Riff 1

  Worn wood, rusted bronze and honest toil explode.
  Am                G                      D
e-0-----------------3----------------------2------|
b-1-----------------3----------------------3------|
g-2-----------------0----------------------2------|
d-2-----------------0----------------------0------|
a-0-----------------2-----------------------------|
e-------------------3-----------------------------|

   They cast long shadows in the evening sun
 G                              C*       G
e-3------------------------------3-------3--|
b-3------------------------------3-------3--|
g-0------------------------------0-------0--|
d-0------------------------------2-------0--|
a-2------------------------------3-------2--|
e-3--------------------------------------3--|

But when the morning comes they've moved along
             Em*     C                   G
e------------3-------3-------------------3----|
b------------3-------3-------------------3----|
g------------0-------0-------------------0----|
d------------2-------2-------------------0----|
a------------2-------3-------------------2----|
e------------0---------------------------3----|

Hey hey Mr Dylan I have written you a song
Riff 1     Riff 1       Riff 2        Riff 1

   About the river of new singers that still rolls along.
 Am                       G                        D
e-0-----------------------3------------------------2----|
b-1-----------------------3------------------------3----|
g-2-----------------------0------------------------2----|
d-2-----------------------0------------------------0----|
a-0-----------------------2-----------------------------|
e-------------------------3-----------------------------|

So here's to Ragan, here's to Marwood, here's to Tim and Jonah too
             Riff 1           Riff 1             Riff 2        Riff 1

     Here's to the ones who have to take the stage and sing the truth.
  Am                                G                           D     
e-0---------------------------------3---------------------------2----|
b-1---------------------------------3---------------------------3----|
g-2---------------------------------0---------------------------2----|
d-2---------------------------------0---------------------------0----|
a-0---------------------------------2--------------------------------|
e-----------------------------------3--------------------------------|

    They cast long shadows in the evening sun
  G                               C       G
e-3-------------------------------3-------3--|
b-3-------------------------------3-------3--|
g-0-------------------------------0-------0--|
d-0-------------------------------2-------0--|
a-2-------------------------------3-------2--|
e-3---------------------------------------3--|

But when the morning comes they've moved along
             Em*     C                   G
e------------3-------3-------------------3---|
b------------3-------3-------------------3---|
g------------0-------0-------------------0---|
d------------2-------2-------------------0---|
a------------2-------3-------------------2---|
e------------0---------------------------3---|

  Sing till you sweat for the spirit of the age,
  A                           Bm            G
e-0---------------------------2-------------3--|
b-2---------------------------3-------------3--|
g-2---------------------------4-------------0--|
d-2---------------------------4-------------0--|
a-0---------------------------2-------------2--|
e-------------------------------------------3--|

  Sing life to lines that are dead on the page,
  A                           Bm          G
e-0---------------------------2-----------3---|
b-2---------------------------3-----------3---|
g-2---------------------------4-----------0---|
d-2---------------------------4-----------0---|
a-0---------------------------2-----------2---|
e-----------------------------------------3---|

  Sing for your sorrow, your wisdom, your rage, sing out.
  A                           Bm          G          Em       A
e-0---------------------------2-----------3----------0--------0--|
b-2---------------------------3-----------3----------0--------2--|
g-2---------------------------4-----------0----------0--------2--|
d-2---------------------------4-----------0----------2--------2--|
a-0---------------------------2-----------2----------2--------0--|
e-----------------------------------------3----------0--------0--|

  Sing for the records you played till they broke,
  A                        Bm               G
e-0------------------------2----------------3----|
b-2------------------------3----------------3----|
g-2------------------------4----------------0----|
d-2------------------------4----------------0----|
a-0------------------------2----------------2----|
e-------------------------------------------3----|

For the parts where you insisted that nobody spoke
        A                             Bm     G
e-------0-----------------------------2------3---|
b-------2-----------------------------3------3---|
g-------2-----------------------------4------0---|
d-------2-----------------------------4------0---|
a-------0-----------------------------2------2---|
e--------------------------------------------3---|

 Sing for the words that you know but they still make you choke    Sing out.
 A                           Bm            G              Em    A 
e0---------------------------2-------------3--------------0-----0----------|
b2---------------------------3-------------3--------------0-----2----------|
g2---------------------------4-------------0--------------0-----2----------|
d2---------------------------4-------------0--------------2-----2----------|
a0---------------------------2-------------2--------------2-----0----------|
e------------------------------------------3--------------0-----0----------|

  Cast a long shadow in the evening sun
  D                         G       D
e-2-------------------------3-------2--|
b-3-------------------------3-------3--|
g-2-------------------------0-------2--|
d-0-------------------------0-------0--|
a---------------------------2----------|
e---------------------------3----------|

And when the morning comes pass it along.
             Bm      G             D
e------------2-------3-------------2----|
b------------3-------3-------------3----|
g------------4-------0-------------2----|
d------------4-------0-------------0----|
a------------2-------2------------------|
e--------------------3------------------|





Comments


Popular Frank Turner tabs & chords
Eulogy Chords
Front Crawl Chords
Once We Were Anarchists 2 Chords
Polaroid Picture Chords
Present Tense Chords
Sunday Nights Chords
The Road Chords
Love Ire And Song Tabs
If Ever I Stray Ukulele
Song To Bob Ukulele


Song lyrics



↑ Back to top | Tablatures and chords are parodies/interpretations of the original songs. You may use it for private study, scholarship, research or language learning purposes only
© 2014 AZChords.com Contact us | Privacy policy | DMCA | Add/correct tabs | Request tabs | Top 50 tabs