» » »

Frank Turner, Nashville Tennessee Bass tabs (ver.1)

Artists:  A B C D E F G H I J K L M N O P Q R S T U V W X Y Z # 

Nashville Tennessee Bass tabs (ver.1)

Frank Turner Tabs
 Rating:
4.3/5 (6 votes)
Nashville Tennessee lessons Tabs too difficult? Try these video lessons and learn fast
                Track: Nashville Tennessee
Tuning: Standard (EADG)

Intro
G|--------------------------------|--------------------------------|
D|-----------4--------------------|-----------4--------------------| 
A|-----4-5-7---7-5-4--------------|-----4-5-7---7-5-4--------------| x2
E|-5-7---------------7-5-----5----|-5-7---------------7-5-----5----|

Verse
G|--------------------------------|--------------------------------|
D|-----------4--------------------|-----------4--------------------| 
A|-----4-5-7---7-5-4--------------|-----4-5-7---7-5-4--------------| 
E|-5-7---------------7-5-----5----|-5-7---------------7-5-----5----|

G|--------------------------------|--------------------------------|
D|--------------------------------|-----------4--------------------| All
A|-5-------4----------------7-----|-----4-5-7---7-5-4--------------|  x2
E|-----------------7--------------|-5-7---------------7-5-----5----|

Chorus
G|--------------------------------|--------------------------------|
D|--------------------------------|--------------------------------| 
A|-5---------------7--------------|-----------------5--------------| x2
E|--------------------------------|-5-------4----------------------|

G|--------------------------------|--------------------------------|
D|--------------------------------|--------------------------------| 
A|-5---------------7--------------|--------------------------------| 
E|--------------------------------|-5-------4-------2--------------|

G|--------------------------------|
D|--------------------------------| 
A|-5---------------7--------------| 
E|--------------------------------|

Intro (only once)

Verse

Chorus

Intro (only first bar)

Bridge 1
G|--------------------------------|--------------------------------|
D|--------------------------------|--------------------------------| 
A|-----------------5---5----------|-----------------7---7----------| 
E|-7---7--------------------------|-5---5--------------------------|
                                   
G|--------------------------------|--------------------------------|
D|--------------------------------|-----------4--------------------| 
A|-----------------5---5----------|-----4-5-7---7-5-4--------------| 
E|-7---7--------------------------|-5-7---------------7-5-----5----|

G|--------------------------------|--------------------------------|
D|--------------------------------|--------------------------------| 
A|-----------------5---5----------|-----------------7---7----------| 
E|-7---7--------------------------|-5---5--------------------------|
                                   
G|--------------------------------|
D|--------------------------------| 
A|-----------------5---5----------|
E|-7---7--------------------------|

Solo (same as Verse, but only once)

Bridge 2
G|--------------------------------|--------------------------------|
D|--------------------------------|--------------------------------| 
A|--------------------------------|--------------------------------| 
E|-5------------------------------|-5------------------------------|

G|--------------------------------|--------------------------------|
D|--------------------------------|--------------------------------| 
A|-5-------5-------5-------5------|-7-------7-------7-------7------| 
E|--------------------------------|--------------------------------|

G|--------------------------------|--------------------------------|
D|--------------------------------|--------------------------------| 
A|--------------------------------|--------------------------------|
E|-5-------5-------5-------5------|-7-------7-------7-------7------| 

Chorus

Outro (same as Intro)
            
Submit corrections

comments powered by Disqus
↑ Back to top | Frank Turner Bass for Nashville Tennessee. Lyrics for acoustic guitar and electric guitar. Tablatures and chords are parodies/interpretations of the original songs. You may use it for private study, scholarship, research or language learning purposes only