» » »

I Knew Prufrock Before He Got Famous Chords (ver.2)

Artists:  A B C D E F G H I J K L M N O P Q R S T U V W X Y Z # 

I Knew Prufrock Before He Got Famous Chords (ver.2)

Frank Turner
Rating:
5/5 (12 votes)

Hard to play? Try these video lessons and learn fast.
                This sounds nearly like the original. On CD Frank Turner uses some additional
alternative Chords but I'll stick to the live version.
I don't know the names of some chords, so i will just write the tabs.
Please comment the right names! thanks

Mr-ekim
Capo on 3rd Fred.

   Lets begin... we're lovers...we're heroes...we're beggars
E---------0------------0--------------0--------------0------|
B---------2------------3--------------5--------------3------|
G---------2------------2--------------4--------------4------|
D---------2------------4--------------6--------------2------|
A---------0------------0--------------0--------------0------|
E-----------------------------------------------------------|
          A            D?             E?             D?

          Skirting round...  of the ideal...   we're almost
E---------0---------------------------2--------------0------|
B---------0---------------------------2--------------0------|
G---------1---------------------------2--------------1------|
D---------2---------------------------4--------------2------|
A---------2---------------------------4--------------2------|
E---------0---------------------------2--------------0------|
          E                           F#             E

but we're always stuck...
E---------2----------------------|
B---------3----------------------|
G---------2----------------------|
D---------0----------------------|
A--------------------------------|
E--------------------------------|
          D

Repeat this for the second Verse; then:

        D
famous old friends

of the stars      (unsure)
E---------0-----------------0----0----2-|
B---------3-------2?--------0----0----3-|
G---------2-------2?--------1----1----2-|
D---------0-------0?--------2----0----0-|
A---------------------------2----2------|
E---------3-------2?--------0----0------|
         D/G                E    E7   D

Then it's starts over again.

Enjoy!
            
Hard to play? Try these video lessons and learn fast. | Correct




comments powered by Disqus
↑ Back to top | Tablatures and chords are parodies/interpretations of the original songs. You may use it for private study, scholarship, research or language learning purposes only