>
 >
Hold Your Tongue

Hold Your Tongue Guitar Tabs

Frank Turner - Hold Your Tongue chords, tabs, tablatures, lyrics

Guitar lessons | Add/correct | Request | Top 50 tabs Artists:  A B C D E F G H I J K L M N O P Q R S T U V W X Y Z 0-9

Hold Your Tongue Guitar Tabs – Frank Turner

CD, Sheet music, Poster

Do you like Hold Your Tongue? Share with your friends now
Tabs
Standard Tuning
Capo 5

Section 1 - Intro & Verse

    Asus2    Am A7sus2/G       Am
E|------------------------------------------------------------------------|
B|---------0h1-0-----------0---1~-----------------------------------------|
G|-----------------0-----------2~-----------------------------------------|
D|---------2---2-----------2---2~-----------------------------------------|   x3
A|--0--------------------------0~-----------------------------------------|
E|---------------------3--------------------------------------------------|

    Asus2    Am A7sus2/G       F           Dsus2
E|-----------------------------------------0~-----------------------------|
B|---------0h1-0-----------0---1~----------3~-----------------------------|
G|-----------------0-----------2~----------2~-----------------------------|
D|---------2---2-----------2---3~----------0~-----------------------------|
A|--0---------------------------------------------------------------------|
E|---------------------3-------1~-----------------------------------------|

      x 2

Section 2 - Interlude

    Asus2    Am A7sus2/G       Am     Am*                        Csus2
E|--------------------------------------------------0----------------------|
B|---------0h1-0-----------0---1~--------0h1-----------------------1-------|
G|-----------------0-----------2~--------2---2--------------0--------0-----|
D|---------2---2-----------2---2~-------2-------2--------2-------------0---|
A|--0--------------------------0~-------0------------------------3---------|
E|---------------------3---------------------------------------------------|

    Asus2    Am A7sus2/G       F         F*       D
E|-------------------------------------------------------------------------|
B|---------0h1-0-----------0---1~---------1p0------------------------------|
G|-----------------0-----------2~---------2---2p0-2~-----------------------|
D|---------2---2-----------2---3~--------3--------0~-----------------------|
A|--0----------------------------------------------------------------------|
E|---------------------3-------1~--------1---------------------------------|

Section 3 - Verse

    Asus2    Am A7sus2/G       Am
E|------------------------------------------------------------------------|
B|---------0h1-0-----------0---1~-----------------------------------------|
G|-----------------0-----------2~-----------------------------------------|
D|---------2---2-----------2---2~-----------------------------------------|   x3
A|--0--------------------------0~-----------------------------------------|
E|---------------------3--------------------------------------------------|

    Asus2    Am A7sus2/G       F         F*        D
E|------------------------------------------------------0------1-----------|
B|---------0h1-0-----------0---1~---------1p0------------------------------|
G|-----------------0-----------2~---------2---2p0-2~-----------------------|
D|---------2---2-----------2---3~--------3--------0~-----------------------|
A|--0----------------------------------------------------------------------|
E|---------------------3-------1~--------1---------------------------------|

Section 4 - Chorus

    Asus2    Am A7sus2/G       Am     Am*                        Csus2
E|--------------------------------------------------0----------------------|
B|---------0h1-0-----------0---1~--------0h1-----------------------1-------|
G|-----------------0-----------2~--------2---2--------------0--------0-----|
D|---------2---2-----------2---2~-------2-------2--------2-------------0---|
A|--0--------------------------0~-------0------------------------3---------|
E|---------------------3---------------------------------------------------|

    Asus2    Am A7sus2/G       F         F*
E|-------------------------------------------------------------------------|
B|---------0h1-0-----------0---1~---------1p0------------------------------|
G|-----------------0-----------2~---------2----2p0-------------------------|
D|---------2---2-----------2---3~--------3----------3p2p0------------------|
A|--0------------------------------------------------------3p2p0--2--------|
E|---------------------3-------1~--------1---------------------------------|

    Asus2    Am A7sus2/G       Am     Am*          Am7       Am6  Am7
E|-------------------------------------------------3---------1----0--------|
B|---------0h1-0-----------0---1~--------0h1----------1--------------1-----|
G|-----------------0-----------2~--------2---2-----------2------2-------0--|
D|---------2---2-----------2---2~-------2-------2--------------------------|
A|--0--------------------------0~-------0----------------------------------|
E|---------------------3---------------------------------------------------|

    Asus2    Am A7sus2/G       F         F*        D
E|------------------------------------------------------0------1-----------|
B|---------0h1-0-----------0---1~---------1p0------------------------------|
G|-----------------0-----------2~---------2---2p0-2~-----------------------|
D|---------2---2-----------2---3~--------3--------0~-----------------------|
A|--0----------------------------------------------------------------------|
E|---------------------3-------1~--------1---------------------------------|

Section 5 - Verse

    Asus2    Am    A7sus2/G    Am
E|---------0---0---0-------0---0~------------------------------------------|
B|---------0h1-0---0-------0---1~------------------------------------------|
G|---2-----2---2---0---0---0---2~------------------------------------------|
D|---2-----2---2---2---2---2---2~------------------------------------------|   x3
A|---0-----0---0---0---0---0---0~------------------------------------------|
E|---------------------3---------------------------------------------------|

    Asus2    Am    A7sus2/G    Fmaj7
E|---------0---0---0-------0---0-------0-------0-------0-------0~----------|
B|---------0h1-0---0-------0---1-------1-------1-------1-------1~----------|
G|---2-----2---2---0---0---0---2-------2-------2-------2-------2~----------|
D|---2-----2---2---2---2---2---3-------3-------3-------3-------3~----------|
A|---0-----0---0---0---0---0-----------------------------------------------|
E|---------------------3-------1-------1-------1-------1-------1~----------|

Section 6 - Middle Howevermany

                                                      G
E|-------------------------------------------------------------------------|
B|-------------------------------------------------------------------------|
G|-------------------------------------------------------------------------|
D|----------0------2------3~------------2~----------------------------0----|
A|---3--------------------------------------------------------0h2----------|
E|----------------------------------------------------3--------------------|

                          C             Cmaj7/B         Am*
E|--------------------------------------------------------------------0----|
B|------------------------------1-------------0------------0h1-------------|
G|--------------------------------0-------------0----------2----2----------|
D|----------------------------------2-------------0-------2--------2-------|
A|----------0------2------3-------------2-------------0---0----------------|
E|---3---------------------------------------------------------------------|

                          Dsus2/F#
E|---------------------------------------------------------------------0---|
B|-------------------------------3------------3--------------1-------------|
G|---------------------------------2-------------0--------------0----------|
D|-----------------------------------0--------------0--------------0-------|
A|---0---------------------------------------------------------------------|
E|---------3-------1------2--------------2-------------1-------------------|


Repeat Section 4 (Chorus) once more.

* simply means pick each string low->high quickly one after the other, you'll hear it on 
track
h - hammer on
p - pull off


This wasn't tabbed out by me, I found it on a forum somewhere :) by HUGH.





Comments


Popular Frank Turner tabs & chords
A Love Worth Keeping Chords
Back To Sleep Chords
Eulogy 2 Chords
Hits And Mrs Chords
Tattoos Chords
Tell Tale Signs Chords
Better Half Tabs
I Still Believe Ukulele
Reasons Not To Be An Idiot Ukulele
Thatcher Fucked The Kids Ukulele


Song lyrics



↑ Back to top | Tablatures and chords are parodies/interpretations of the original songs. You may use it for private study, scholarship, research or language learning purposes only
© 2014 AZChords.com Contact us | Privacy policy | DMCA | Add/correct tabs | Request tabs | Top 50 tabs