» » »

Heartless Bastard Motherfucker Tabs (ver.1)

Artists:  A B C D E F G H I J K L M N O P Q R S T U V W X Y Z # 

Heartless Bastard Motherfucker Tabs (ver.1)

Frank Turner
Rating:
1/5 (1 vote)

Hard to play? Try these video lessons and learn fast.
                Heartless Bastard Motherf**ker By Frank Turner

Standard Tuning


Intro/Verse:

e---------------------------0--1-1-1-1-1--1-1-1-1-1-----------|
b-------1----x-x-x-x-1-1-1--0--1-1-1-1-1--1-1-1-1-1-----------|
g-------0----x-x-x-x-3-3-3--1--2-2-2-2-2--1-1-1-1-1-----------|
d-------2----x-x-x-x-2-2-2--0--3-3-3-3-3--1-1-1-1-1-----------|
a-------3----x-x-x-x-3-3-3--3--3-3-3-3-3--3-3-3-3-3-----------|
e---------------------------0--1-1-1-1-1----------------------|

End of Chorus/Pre chorus:

e-------3-3-3-3--1-1-1-1-----------3-3-3-3--------------------|
b-------3-3-3-3--1-1-1-1--1-1-1-1--3-3-3-3--------------------|
g-------0-0-0-0--2-2-2-2--0-0-0-0--2-2-2-2--------------------|
d-------0-0-0-0--3-3-3-3--2-2-2-2--0-0-0-0--------------------|
a-------2-2-2-2--3-3-3-3--3-3-3-3--2-2-2-2--------------------|
e-------3-3-3-3--1-1-1-1-----------3-3-3-3--------------------|

Chorus:
e-------1-1-1-1--1-1-1-1--------------------------------------|
b-------1-1-1-1--1-1-1-1--1-1-1-1-1-1-1-1---------------------|
g-------2-2-2-2--1-1-1-1--0-0-0-0-0-0-0-0---------------------|
d-------3-3-3-3--3-3-3-3--2-2-2-2-2-2-2-2---------------------|
a-------3-3-3-3--3-3-3-3--3-3-3-3-3-3-3-3---------------------|
e-------1-1-1-1--1-1-1-1--------------------------------------|

e-------3-3------------1-1----1-1-1-1-1-1-1-----3-3-3-3-3-3-3-3--1----|
b-------3-3--3-3--1-1--3-3----1-1-1-1-1-1-1-----3-3-3-3-3-3-3-3--1----|
g-------0-0--0-0--2-2--3-3----2-2-2-2-2-2-2-----0-0-0-0-0-0-0-0--2----|
d-------0-0--0-0--2-2--3-3----3-3-3-3-3-3-3-----0-0-0-0-0-0-0-0--3----|
a-------2-2-------0-0--1-1----3-3-3-3-3-3-3-----2-2-2-2-2-2-2-2--3----|
e-------3-3--4-4--------------1-1-1-1-1-1-1--2--3-3-3-3-3-3-3-3--1----|

Bridge:

e------------0----1----------1--------------0----1---------3------|
b-------1----0----1----1--3--1---------1----0----1---------3------|
g-------2----0----2----0--0--2----3----2----0----2---------0------|
d-------2----2----3----2-----3----3----2----2----3---------0------|
a-------0----2----3----3--2--3----1----0----2----3---------2------|
e------------0----1----------1--------------0----1---------3------|


e-----------------1-------------1--------3-------------------|
b-------1---------1----1--------1--------3-------------------|
g-------0----3----2----0----3---2--------0-------------------|
d-------2----3----3----2----3---3--------0-------------------|
a-------3----1----3----3----1---3--------2-------------------|
e-----------------1-------------1--------3-------------------|

Outro:

Play the Verse 4 times then:

e-------1----1-------------------------------------------|
b-------1----1----1--------------------------------------|
g-------2----1----0--------------------------------------|
d-------3----3----2--------------------------------------|
a-------3----3----3--------------------------------------|
e-------1----1-------------------------------------------|
            
Hard to play? Try these video lessons and learn fast. | Correct




comments powered by Disqus
↑ Back to top | Tablatures and chords are parodies/interpretations of the original songs. You may use it for private study, scholarship, research or language learning purposes only