» » »

Frank Turner, Father's Day Tabs (ver.1)

Artists:  A B C D E F G H I J K L M N O P Q R S T U V W X Y Z # 

Father's Day Tabs (ver.1)

Frank Turner Tabs
Rating:
0/5 (0 votes)
Father's Day lessons Tabs too difficult? Try these video lessons and learn fast
                -------------------------------------------------------------------------------
                             Fathers Day - Frank Turner
-------------------------------------------------------------------------------

Tuning: Standard, capo on 3rd

Intro/PreChorus

e|---0-----3----------|--0---0------------|-----0-----3--------|--0----------|
B|---0-----0----------|--3---0------------|-----0-----0--------|--0----------|
G|---0-----0----------|--2---2------------|-----0-----0--------|--2----------|
D|---2-----0-----0----|0---0-2-2-4-2-0-2-0|x3---2-----0-----0--|2---2-5-5-4-2|
A|---2-----2-0-2---0-2|0---0-0---------0--|-----2-----2-0-2---2|0---0-0-0-0-0|
E|-0---2-3------------|-------------------|---0---2-3----------|-------------|

Verse
e|-----0--------------|----------0----------|----0--------------|-------------------|
B|-------3-------0----|----3-------3---3----|------3-------0----|----3---------3----|
G|---2-----2-------2--|------0-------0---0--|--2-----2-------2--|------0---------0--|
D|-0-----------0-----0|--4-----4-----------4|0-----------0-----0|--4-----4---4-----4| 
A|-----------4--------|2--------------------|----------4--------|2------------------|
E|--------------------|---------------------|-------------------|----------3--------|

Chorus
e|-----0---------0----|--0-0-0-0-0-0-0|--2-2-2-2-2-2-2|--3---2---------------|
B|-------3---------3--|--2-0-2-3-2-0-2|--3-3-3-3-3-3-3|--3---3---------------|
G|-2-2-----2---2-----2|2-2-2-2-2-2-2-2|4-4-4-4-4-4-4-4|--0---0---------------|
D|-0-0-------0-0------|2-------2---2--|4-------4------|0-0-0-0---------------|
A|-0-0-------0-0------|0-------0---0--|2-------2------|2---2-----------------|
E|--------------------|---------------|---------------|3---3-----------------|

Middle8
e|-0-0-0-0-0-0-0-0-|-2-2-2-2-2-2-2-2-|-3-3-3-3-3-3-3-3-|-2-2-2-2-0-0-0-0-----|
B|-0-0-0-0-0-0-0-0-|-3-3-3-3-3-3-3-3-|-0-0-0-0-0-0-0-0-|-3-3-3-3-0-0-0-0-----|
G|-2-2-2-2-2-2-2-2-|-4-4-4-4-4-4-4-4-|-0-0-0-0-0-0-0-0-|-2-2-2-2-2-2-2-2-----|
D|-4-4-4-4-4-4-4-4-|-4-4-4-4-4-4-4-4-|-0-0-0-0-0-0-0-0-|-0-0-0-0-0-0-0-0-----|
A|-4-4-4-4-4-4-4-4-|-2-2-2-2-2-2-2-2-|-2-2-2-2-2-2-2-2-|-0-0-0-0-4-4-4-4-----|
E|-2-2-2-2-2-2-2-2-|-----------------|-3-3-3-3-3-3-3-3-|---------------------|

e|-0-0-0-0-0-0-0-0-|-2-2-2-2-2-2-2-2-|-3-3-3-3-3-3-3-3-|-2-2-2-2-0-0-0-0-----|
B|-0-0-0-0-0-0-0-0-|-3-3-3-3-3-3-3-3-|-0-0-0-0-0-0-0-0-|-3-3-3-3-0-0-0-0-----|
G|-2-2-2-2-2-2-2-2-|-4-4-4-4-4-4-4-4-|-0-0-0-0-0-0-0-0-|-2-2-2-2-2-2-2-2-----|
D|-4-4-4-4-4-4-4-4-|-4-4-4-4-4-4-4-4-|-0-0-0-0-0-0-0-0-|-0-0-0-0-0-0-0-0-----|
A|-4-4-4-4-4-4-4-4-|-2-2-2-2-2-2-2-2-|-2-2-2-2-2-2-2-2-|-0-0-0-0-4-4-4-4-----|
E|-2-2-2-2-2-2-2-2-|-----------------|-3-3-3-3-3-3-3-3-|---------------------|

e|-3-3-3-3-3-3-3-3-----------------------------------------------------------|
B|-0-0-0-0-0-0-0-0-----------------------------------------------------------|
G|-2-2-2-2-2-2-2-2-----------------------------------------------------------|
D|-0-0-0-0-0-0-0-0-----------------------------------------------------------|
A|---------------------------------------------------------------------------|
E|-3-3-3-3-3-3-3-3-----------------------------------------------------------|

Outro
e|-0-0-0-0-0-0-0-0-|-3-3-3-3-3-3-3-3-|-2-2-2-2-2-2-2-2-|-0-0-0-0-0-0-0-0-----|
B|-0-0-0-0-0-0-0-0-|-0-0-0-0-0-0-0-0-|-3-3-3-3-3-3-3-3-|-3-3-3-3-3-3-3-3-----|
G|-0-0-0-0-0-0-0-0-|-0-0-0-0-0-0-0-0-|-2-2-2-2-2-2-2-2-|-3-3-3-3-3-3-3-3-----|
D|-2-2-2-2-2-2-2-2-|-0-0-0-0-0-0-0-0-|-0-0-0-0-0-0-0-0-|-3-3-3-3-3-3-3-3-----|
A|-2-2-2-2-2-2-2-2-|-2-2-2-2-2-2-2-2-|-----------------|-0-0-0-0-0-0-0-0-----|
E|-0-0-0-0-0-0-0-0-|-3-3-3-3-3-3-3-3-|-----------------|---------------------|


Intro x4
Verse x2
PreChorus x4
Chorus x2
Intro x2
Verse x2
PreChorus x4
Chorus x2
Middle8
Outro x3
            
Submit corrections

comments powered by Disqus
↑ Back to top | Frank Turner Tabs for Father's Day. Lyrics for acoustic guitar and electric guitar. Tablatures and chords are parodies/interpretations of the original songs. You may use it for private study, scholarship, research or language learning purposes only