» » »

Frank Turner, Better Half Tabs (ver.1)

Artists:  A B C D E F G H I J K L M N O P Q R S T U V W X Y Z # 

Better Half Tabs (ver.1)

Frank Turner Tabs
Rating:
5/5 (5 votes)
Better Half lessons Tabs too difficult? Try these video lessons and learn fast
                better half - love, ire and song

intro

Dm, C, G

e--1-----3-----------------------------------------------|
b--3--1--3-----------------------------------------------|
g--2--0--0-----------------------------------------------|
d--0--2--0-----------------------------------------------|
a-----3--2-----0--2--------------------------------------|
e--------3--3--------------------------------------------|

verse

Em Am x2 then Bm, C, G, F, C

e-0--0-----2-----3--1-----------------------------------------|
b-0--1-----3--1--3--1--1--------------------------------------|
g-0--2-----4--0--0--2--0--------------------------------------|
d-2--2-x2--4--2--0--3--2--------------------------------------|
a-2--0-----2--3--2--3--3--------------------------------------|
e-0--------------3--1-----------------------------------------|
chorus

Dm, C, G

e--1-----3-----------------------------------------------|
b--3--1--3-----------------------------------------------|
g--2--0--0-----------------------------------------------|
d--0--2--0-----------------------------------------------|
a-----3--2-----0--2--------------------------------------|
e--------3--3--------------------------------------------|

bridge

E, F, C, Bb, F

e--0--1------------1------------------------------------------|
b--0--1------1--3--1------------------------------------------|
g--1--2------0--3--2------------------------------------------|
d--2--3--x3--2--3--3--x3--------------------------------------|
a--2--3------3--1--3------------------------------------------|
e--0--1------------1------------------------------------------|
last chorus

G, F, C

e--3--1-------------------------------------------------------|
b--3--1--1----------------------------------------------------|
g--0--2--0----------------------------------------------------|
d--0--3--2----------------------------------------------------|
a--2--3--3----------------------------------------------------|
e--3--1-------------------------------------------------------|
            

comments powered by Disqus
↑ Back to top | Frank Turner Tabs for Better Half. Lyrics for acoustic guitar and electric guitar. Tablatures and chords are parodies/interpretations of the original songs. You may use it for private study, scholarship, research or language learning purposes only