>
 >
Yesterday

Yesterday Guitar Tabs

Frank Sinatra - Yesterday chords, tabs, tablatures, lyrics

Guitar lessons | Add/correct | Request | Top 50 tabs Artists:  A B C D E F G H I J K L M N O P Q R S T U V W X Y Z 0-9

Yesterday Guitar Tabs – Frank Sinatra

CD, Sheet music, Poster

Do you like Yesterday? Share with your friends now
Tabs

Tuning: EADGBE	Time Signature: 4/4  p=pull off
Where possible, identify and work from chord shapes

      
|------------3p--0---------------|--------0---2---4---5---7---8---|
|3---1---1-----------1-----------|--------3-------3-------0-------|
|0-----------------------0-------|----2-----------4-------7-------|
|2---------------------------2---|----------------2-------6-------|
|3-------------------------------|2-----------------------7-------|
|--------------------------------|--------------------------------|

 
|7---5---5-----------------------|--------5---5---3---1---0-------|
|5---------------0-------0-------|--------5---5---------------3---|
|5---------------5-------5-------|----5---------------------------|
|5---------------7-------5-------|3-------------------------------|
|--------------------------------|--------------------------------|
|--------------------------------|--------------------------------|

|1---0---0-----------------------|--------0-----------------------|
|1-------1---------------3-------|1---------------3---------------|
|2-------0-----------------------|0---------------5-------2-------|
|3-------2-----------------------|2---------------4---------------|
|3-------3-----------------------|3---------------5---------------|
|--------------------------------|--------------------------------|

       
|--------0-------0---------------|----0---0---0-------0---0---0---|
|1---------------1---------------|----5---5---5-------3---3---3---|
|2---------------0---------------|----7---7---7-------1---1---1---|
|3---------------2---------------|----7---7---7-------2---2---2---|
|3---------------3---------------|--------------------------------|
|--------------------------------|7---------------0---------------|

         
|5-------7-------8-------7---5---|--------7---5---3-------5-------|
|5-------5-------5---------------|--------6---6---3---------------|
|5-------5-------5---------------|--------0---0---4---------------|
|7-------6-------5---------------|----7-----------5---------------|
|--------------------------------|5-------------------------------|
|--------------------------------|--------------------------------|

       
|----------------0-------0-------|----0---0---0-------0---0---0---|
|----------------3-------1-------|----5---5---5-------3---3---3---|
|--------0-----------------------|----7---7---7-------1---1---1---|
|----2---------------------------|----7---7---7-------2---2---2---|
|3-------------------------------|--------------------------------|
|--------------------------------|7---------------0---------------|

        
|5-------7-------8-------7---5---|--------7---5---3-------5---7---|
|5-------5-------5---------------|--------6---6---3---------------|
|5-------5-------5---------------|----7-----------4---------------|
|7-------6-------5---------------|5---------------5---------------|
|--------------------------------|--------------------------------|
|--------------------------------|--------------------------------|

        
|8-------3-------1-------0-------|------------3p--0---------------|
|8-------3-------1-------1-------|3---1---1-----------1-----------|
|9-------4-------2-------0-------|0-----------------------0-------|
|10------5-------3-------2-------|2---------------------------2---|
|------------------------3-------|3-------------------------------|
|--------------------------------|--------------------------------|

        
|--------0---2---4---5---7---8---|7---5---5-----------------------|
|--------3-------3-------0-------|5---------------0-------0-------|
|----2-----------4-------7-------|5---------------5-------5-------|
|----------------2-------6-------|5---------------7-------5-------|
|2-----------------------7-------|--------------------------------|
|--------------------------------|--------------------------------|

        
|--------5---5---3---1---0-------|1---0---0-----------------------|
|--------5---5---------------3---|1-------1---------------3-------|
|----5---------------------------|2-------0-----------------------|
|3-------------------------------|3-------2-----------------------|
|--------------------------------|3-------3-----------------------|
|--------------------------------|--------------------------------|

       
|--------0-----------------------|--------0-------0---------------|
|1---------------3---------------|1---------------1---------------|
|0---------------5-------2-------|2---------------0---------------|
|2---------------4---------------|3---------------2---------------|
|3---------------5---------------|3---------------3---------------|
|--------------------------------|--------------------------------|

        
|--------5---------------3-------|--------1-------0b--------------|
|--------5---------------3-------|--------1-------0b--------------|
|----5---------------4-----------|----2-----------0b--------------|
|3---------------2---------------|0---------------2b--------------|
|--------------------------------|----------------3b--------------|
|--------------------------------|--------------------------------|

 





Comments


Popular Frank Sinatra tabs & chords
Call Me Irresponsible Chords
I've Got The World On A String Chords
In The Wee Small Hours Of The Morning Chords
My Way 5 Chords
One For My Baby Chords
Strangers In The Night 1 Chords
My Way 1 Tabs
Something Stupid 1 Tabs
Same Old Saturday Night Ukulele
Strangers In The Night Ukulele


Song lyrics



↑ Back to top | Tablatures and chords are parodies/interpretations of the original songs. You may use it for private study, scholarship, research or language learning purposes only
© 2014 AZChords.com Contact us | Privacy policy | DMCA | Add/correct tabs | Request tabs | Top 50 tabs