» » »

Frank Sinatra, Whispering Tabs (ver.1)

Artists:  A B C D E F G H I J K L M N O P Q R S T U V W X Y Z # 

Whispering Tabs (ver.1)

Frank Sinatra Tabs
Rating:
0/5 (0 votes)
Whispering lessons Tabs too difficult? Try these video lessons and learn fast
                Tuning: EADGBE	Time Signature: 4/4

 |       |       |       |        |       |       |       |        
|--------------------------------|5---------------4-------5-------|
|--------------------------------|5---------------4-------5-------|
|--------------------------------|6---------------5-------6-------|
|--------------------------------|7---------------6-------7-------|
|--------------------------------|--------------------------------|
|--------0-------2-------4-------|--------------------------------|

 |       |       |       |        |       |       |       |        
|7-------5-------4-------5-------|--------4-----------------------|
|5-------5-------4-------5-------|--------4-----------------------|
|6-------6-------5-------6-------|--------5-----------------------|
|7-------7-------6-------7-------|--------4-----------------------|
|--------------------------------|--------6-----------------------|
|--------------------------------|4-------------------------------|

 |       |       |       |        |       |       |       |        
|2-------------------------------|0-----------------------0-------|
|1-------------------------------|2---------------4---------------|
|1-------------------------------|2-------------------------------|
|1-------------------------------|2-------------------------------|
|--------------------------------|0-------------------------------|
|--------------------------------|--------------------------------|

 |       |       |       |        |       |       |       |        
|2-------0---------------0-------|--------------------------------|
|----------------4---------------|--------3-----------------------|
|--------------------------------|--------4-----------------------|
|--------------------------------|--------3-----------------------|
|--------------------------------|--------------------------------|
|--------------------------------|3-------------------------------|

 |       |       |       |        |       |       |       |        
|--------------------------------|--------------------------------|
|--------2-----------------------|--------2-------0-------2-------|
|--------3-----------------------|--------2-----------------------|
|--------2-----------------------|--------1-----------------------|
|--------------------------------|2-------------------------------|
|2-------------------------------|--------------------------------|

 |       |       |       |        |       |       |       |        
|2-------------------------------|--------------------------------|
|0-------2-------0-------2-------|--------2-----------------------|
|2-------------------------------|--------1-----------------------|
|1-------------------------------|--------2-----------------------|
|2-------------------------------|--------2-----------------------|
|--------------------------------|0-------------------------------|

 |       |       |       |        |       |       |       |        
|--------------------------------|--------------------------------|
|0-------------------------------|----------------0-------2-------|
|1-------------------------------|--------2-----------------------|
|2-------------------------------|--------2-----------------------|
|2-------------------------------|0-------------------------------|
|0-------------------------------|--------------------------------|

 |       |       |       |        |       |       |       |        
|0---------------2-------4-------|2---------------0-------4-------|
|----------------3-------5-------|3-----------------------5-------|
|----------------2-------4-------|2-----------------------4-------|
|--------------------------------|--------------------------------|
|--------------------------------|--------------------------------|
|--------------------------------|--------------------------------|

 |       |       |       |        |       |       |       |        
|2-------0-------2-------4-------|5---------------4-------5-------|
|3---------------3-------5-------|5---------------4-------5-------|
|2---------------2-------4-------|6---------------5-------6-------|
|--------------------------------|7---------------6-------7-------|
|--------------------------------|--------------------------------|
|--------------------------------|--------------------------------|

 |       |       |       |        |       |       |       |        
|7-------5-------4-------5-------|--------4-----------------------|
|5-------5-------4-------5-------|--------4-----------------------|
|6-------6-------5-------6-------|--------5-----------------------|
|7-------7-------6-------7-------|--------4-----------------------|
|--------------------------------|--------6-----------------------|
|--------------------------------|4-------------------------------|

 |       |       |       |        |       |       |       |        
|2-------------------------------|0-----------------------0-------|
|1-------------------------------|2---------------4---------------|
|1-------------------------------|2-------------------------------|
|1-------------------------------|2-------------------------------|
|--------------------------------|0-------------------------------|
|--------------------------------|--------------------------------|

 |       |       |       |        |       |       |       |        
|2-------0---------------0-------|--------------------------------|
|----------------4---------------|--------3-----------------------|
|--------------------------------|--------4-----------------------|
|--------------------------------|--------3-----------------------|
|--------------------------------|--------------------------------|
|--------------------------------|3-------------------------------|

 |       |       |       |        |       |       |       |        
|--------------------------------|--------------------------------|
|--------2-----------------------|--------2-------0-------2-------|
|--------3-----------------------|--------2-----------------------|
|--------2-----------------------|--------1-----------------------|
|--------------------------------|2-------------------------------|
|2-------------------------------|--------------------------------|

 |       |       |       |        |       |       |       |        
|2-------------------------------|--------------------------------|
|0-------2-------0-------2-------|--------2-----------------------|
|2-------------------------------|--------1-----------------------|
|1-------------------------------|--------2-----------------------|
|2-------------------------------|--------2-----------------------|
|--------------------------------|0-------------------------------|

 |       |       |       |        |       |       |       |        
|--------------------------------|------------------------0-------|
|0-------------------------------|0-------2-------3---------------|
|1-------------------------------|--------------------------------|
|2-------------------------------|--------------------------------|
|2-------------------------------|--------------------------------|
|0-------------------------------|--------------------------------|

 |       |       |       |        |       |       |       |        
|1---------------0---------------|5-------------------------------|
|1---------------3---------------|5-------------------------------|
|2---------------1---------------|6-------------------------------|
|3---------------2---------------|7-------------------------------|
|3---------------2---------------|7-------------------------------|
|--------------------------------|--------------------------------|

 |       |       |       |        |       |       |       |        
|6-------------------------------|7-------7-----------------------|
|5-------------------------------|7-------7-------9-------7-------|
|6-------------------------------|8-------8-----------------------|
|5-------------------------------|7-------7-----------------------|
|--------------------------------|--------------------------------|
|--------------------------------|--------------------------------|

 |       |       |       |        |       |       |       |        
|----------------9---------------|5---------------3---------------|
|5---------------9---------------|5-------3-------3-------1-------|
|7---------------9---------------|6-------5-------4-------3-------|
|6---------------9---------------|7-------4-------5-------2-------|
|7-------------------------------|--------5---------------3-------|
|--------------------------------|--------------------------------|

 |       |       |       |        |       |       |       |        
|1-------0-----------------------|--------------------------------|
|1-------3-------2---------------|--------------------------------|
|2-------1-------2---------------|--------------------------------|
|3-------2-------2---------------|--------------------------------|
|--------2-------0---------------|--------------------------------|
|--------------------------------|--------------------------------|

 |       |       |       |        |       |       |       |        
|4-------------------------------|2-------------------------------|
|3-------------------------------|2-------------------------------|
|3-------------------------------|2-------------------------------|
|3-------------------------------|2-------------------------------|
|--------------------------------|--------------------------------|
|--------------------------------|--------------------------------|

 
            

comments powered by Disqus
↑ Back to top | Frank Sinatra Tabs for Whispering. Lyrics for acoustic guitar and electric guitar. Tablatures and chords are parodies/interpretations of the original songs. You may use it for private study, scholarship, research or language learning purposes only