>
 >
They Can't Take That Away From Me

They Can't Take That Away From Me Guitar Tabs

Frank Sinatra - They Can't Take That Away From Me chords, tabs, tablatures, lyrics

Guitar lessons | Add/correct | Request | Top 50 tabs Artists:  A B C D E F G H I J K L M N O P Q R S T U V W X Y Z 0-9

They Can't Take That Away From Me Guitar Tabs – Frank Sinatra

CD, Sheet music, Poster

Do you like They Can't Take That Away From Me? Share with your friends now
Tabs


 |       |       |       |        |       |       |       |        
|--------0-------0---------------|--------4-------5-------6-------|
|----5-------5-----------5-------|--------4-------5-------6-------|
|--------------------------------|--------4-------6-------7-------|
|--------------------------------|2---------------4-------5-------|
|--------------------------------|--------------------------------|
|--------------------------------|--------------------------------|
 
 |       |       |       |        |       |       |       |        
|7-------0-------0---------------|----4-----------4-------3-------|
|7---5-------5-----------5-------|----4-----------4-------3-------|
|8-------------------------------|----2-----------2-------2-------|
|6-------------------------------|----1-----------1-------1-------|
|--------------------------------|2-----------2-------------------|
|--------------------------------|--------------------------------|
 
 |       |       |       |        |       |       |       |        
|2-------0-------0---------------|--------7-------7-------9-------|
|----5-------5-----------5-------|--------7-------7-------7-------|
|2-------------------------------|--------7-------7-------7-------|
|1-------------------------------|--------------------------------|
|2-------------------------------|--------------------------------|
|--------------------------------|7-------------------------------|
 
 |       |       |       |        |       |       |       |        
|--------9-------9-------9-------|12--9-------------------4-------|
|--------9-------9-------9-------|10------12--10--12------2-------|
|--------7-------7-------7-------|9-----------------------2-------|
|--------6-------6-------6-------|11----------------------2-------|
|7-------------------------------|9-------------------------------|
|--------------------------------|--------------------------------|
 
 |       |       |       |        |       |       |       |        
|0---------------4-------6-------|7---------------11------9-------|
|0-------------------------------|9-------9-------8-------8-------|
|1-------------------------------|8-------8-------9-------9-------|
|--------------------------------|9-------9-------8-------8-------|
|--------------------------------|--------7-----------------------|
|0-------------------------------|--------------------------------|
 
 |       |       |       |        |       |       |       |        
|7---------------11------9---7---|4-------4-------4-------2-------|
|9-------9-------8---------------|4-------4-------3-------3-------|
|8-------8-------9---------------|4-------4-------4-------4-------|
|9-------9-------8---------------|3-------3-------2-------2-------|
|--------7-----------------------|--------------------------------|
|--------------------------------|--------------------------------|
 
 |       |       |       |        |       |       |       |        
|------------------------4---6---|7-------4-------7-------4-------|
|4-------------------------------|4---------------4---------------|
|6-------------------------------|4---------------4---------------|
|5-------------------------------|6---------------5---------------|
|6-------------------------------|--------------------------------|
|--------------------------------|--------------------------------|
 
 |       |       |       |        |       |       |       |        
|7-------4-------9-------9-------|--------------------------------|
|4---------------9-------9-------|----2-------2-----------4-------|
|4---------------9-------9-------|----2-------2-----------4-------|
|4---------------8-------8-------|----2-------2-----------4-------|
|--------------------------------|--------------------------------|
|--------------------------------|2---------------4---------------|
 
 |       |       |       |        |       |       |       |        
|--------------------------------|--------0-------0---------------|
|5-------------------------------|----5-------5-----------5-------|
|5-------------------------------|--------------------------------|
|5-------------------------------|--------------------------------|
|--------------------------------|--------------------------------|
|5-------------------------------|--------------------------------|
 
 |       |       |       |        |       |       |       |        
|--------4-------5-------6-------|7-------0-------0---------------|
|--------4-------5-------6-------|7---5-------5-----------5-------|
|--------4-------6-------7-------|8-------------------------------|
|2---------------4-------5-------|6-------------------------------|
|--------------------------------|--------------------------------|
|--------------------------------|--------------------------------|
 
 |       |       |       |        |       |       |       |        
|----4-----------4-------3-------|2-------0-------0---------------|
|----4-----------4-------3-------|----5-------5-----------5-------|
|----2-----------2-------2-------|2-------------------------------|
|----1-----------1-------1-------|1-------------------------------|
|2-----------2-------------------|2-------------------------------|
|--------------------------------|--------------------------------|
 
 |       |       |       |        |       |       |       |        
|--------7-------7-------9-------|--------9-------9-------9-------|
|--------7-------7-------7-------|--------9-------9-------9-------|
|--------7-------7-------7-------|--------7-------7-------7-------|
|--------------------------------|--------6-------6-------6-------|
|--------------------------------|7-------------------------------|
|7-------------------------------|--------------------------------|
 
 |       |       |       |        |       |       |       |        
|12--9-------------------4-------|0---------------7-------5-------|
|10------12--10--12------2-------|0---------------7-------5-------|
|9-----------------------2-------|1---------------8-------6-------|
|11----------------------2-------|2---------------6-------4-------|
|9-------------------------------|2-------------------------------|
|--------------------------------|0-------------------------------|
 
 |       |       |       |        |       |       |       |        
|4-------5-------4-------5-------|--------2---------------4-------|
|2-------2-------2-------2-------|--------2---------------4-------|
|--------------------------------|--------2---------------2-------|
|2-------2-------2-------2-------|--------2---------------1-------|
|--------------------------------|----------------2-------2-------|
|--------------------------------|2-------------------------------|
 
 |       |       |       |        |       |       |       |        
|--------------------------------|--------------------------------|
|----5-------5-----------5-------|----5-------5-----------5-------|
|----6-------6-----------6-------|----5-------5-----------5-------|
|----6-------6-----------6-------|----5-------5-----------5-------|
|--------------------------------|--------------------------------|
|6---------------6---------------|5---------------5---------------|
 
 |       |       |       |        |       |       |       |        
|--------------------------------|--------------------------------|
|----5-------5-----------5-------|----5-------5-----------5-------|
|----4-------4-----------4-------|----3-------3-----------3-------|
|----4-------4-----------4-------|----3-------3-----------3-------|
|--------------------------------|--------------------------------|
|4---------------4---------------|3---------------3---------------|
 
 |       |       |       |        |       |       |       |        
|--------------------------------|--------------------------------|
|----0-------0-----------0-------|----0-------0-----------0-------|
|----2-------2-----------2-------|----2-------2-----------2-------|
|----2-------2-----------2-------|----1-------1-----------1-------|
|--------------------------------|--------------------------------|
|2---------------2---------------|1---------------1---------------|
 
 |       |       |       |        |       |       |       |        
|--------------------------------|--------------------------------|
|0-------------------------------|--------------------------------|
|1-------------------------------|--------------------------------|
|2-------------------------------|--------------------------------|
|2-------------------------------|----1/--2-----------------------|
|0-------------------------------|----------------0---------------|
 





Comments


Popular Frank Sinatra tabs & chords
Fly Me To The Moon 1 Chords
I Believe Im Going To Love You Chords
Let Me Try Again Chords
My Way 1 Chords
My Way 7 Chords
Stormy Weather Chords
You'll Never Walk Alone Chords
September In The Rain Tabs
My Way Ukulele
This Love Of Mine Ukulele


Song lyrics



↑ Back to top | Tablatures and chords are parodies/interpretations of the original songs. You may use it for private study, scholarship, research or language learning purposes only
© 2014 AZChords.com Contact us | Privacy policy | DMCA | Add/correct tabs | Request tabs | Top 50 tabs