>
 >
The Way You Look Tonight

The Way You Look Tonight Guitar Tabs

Frank Sinatra - The Way You Look Tonight chords, tabs, tablatures, lyrics

Guitar lessons | Add/correct | Request | Top 50 tabs Artists:  A B C D E F G H I J K L M N O P Q R S T U V W X Y Z 0-9

The Way You Look Tonight Guitar Tabs – Frank Sinatra

CD, Sheet music, Poster

Do you like The Way You Look Tonight? Share with your friends now
ChordsChords v2Chords v3TabsUkulele

TablEdited by Tony Crowley
Tuning: EADGBE	Time Signature: 4/4



 |       |       |       |        |       |       |       |        
|3-------------------------------|----0---1---0-------------------|
|5---------------1---------------|3-------2-----------------------|
|4---------------0---------------|2-------2---------------0-------|
|5---------------2---------------|0-------0-----------0-----------|
|3---------------0---------------|------------------2-------------|
|--------------------------------|----------------3---------------|

 |       |       |       |        |       |       |       |        
|0---1---3---1-------------------|1---3---5---3---1---3---5---7---|
|0-----------------------1-------|3-------6-------0---------------|
|0-------------------0-----------|2-------6-------0---------------|
|2-----------------2-------------|0---------------0---------------|
|3---------------0---------------|--------------------------------|
|--------------------------------|--------------------------------|

 |       |       |       |        |       |       |       |        
|8-------------------------------|----0---3---1---0-------0-------|
|10--------------1---------------|3-------1---------------0-------|
|9---------------3---------------|2-------2---------------0-------|
|10--------------2---------------|0-------0---------------3-------|
|8---------------3---------------|------------------------2-------|
|--------------------------------|--------------------3-----------|

 |       |       |       |        |       |       |       |        
|--------3---------------5-------|------------------------3-------|
|--------5---------------6-------|--------3---------------4-------|
|--------4---------------6-------|--------5---------------4-------|
|----5---------------5-----------|----4---------------3-----------|
|3-------------------------------|--------------------------------|
|------------0---5-----------0---|4-----------0---3---------------|

 |       |       |       |        |       |       |       |        
|3-------------------------------|----0---1---0-------------------|
|5---------------1---------------|3-------2-----------------------|
|4---------------0---------------|2-------2---------------0-------|
|5---------------2---------------|0-------0-----------0-----------|
|3---------------0---------------|------------------2-------------|
|--------------------------------|----------------3---------------|

 |       |       |       |        |       |       |       |        
|0---1---3---1-------------------|1---3---5---3---1---3---5---7---|
|0-----------------------1-------|3-------6-------0---------------|
|0-------------------0-----------|2-------6-------0---------------|
|2-----------------2-------------|0---------------0---------------|
|3---------------0---------------|--------------------------------|
|--------------------------------|--------------------------------|

 |       |       |       |        |       |       |       |        
|8-------------------------------|----0---3---1---0-------0-------|
|10--------------1---------------|3-------1---------------0-------|
|9---------------3---------------|2-------2---------------0-------|
|10--------------2---------------|0-------0---------------3-------|
|8---------------3---------------|------------------------2-------|
|--------------------------------|--------------------3-----------|

 |       |       |       |        |       |       |       |        
|------------0-------------------|----------------6-------6-------|
|--------1-------1---------------|------------6---7-------7-------|
|----0---------------0-----------|--------7-------7-------7-------|
|------------------------2-------|----6-----------6-------6-------|
|3---------------------------3---|--------------------------------|
|--------------------------------|6-------------------------------|

 |       |       |       |        |       |       |       |        
|3---------------3---------------|3---6---4-------1---------------|
|4---------------2---------------|1---------------3---------------|
|3---------------3---------------|1---------------1---------------|
|5---------------2---------------|1---------------3---------------|
|--------------------------------|----------------1---------------|
|--------------------------------|--------------------------------|

 |       |       |       |        |       |       |       |        
|----3-------------------3-------|8---------------6---------------|
|6-----------4---3---4-----------|9---------------6---------------|
|3-----------3-------------------|8---------------7---------------|
|5-----------5-------------------|10--------------6---------------|
|------------3-------------------|8---------------8---------------|
|--------------------------------|--------------------------------|

 |       |       |       |        |       |       |       |        
|6-------6-----------------------|6---8---4-------3---------------|
|8-------8---------------8-------|4---------------3---------------|
|7-------7-----------7-----------|5---------------4---------------|
|8-------8---------8-------------|3---------------3---------------|
|6-------6-------7---------------|--------------------------------|
|--------------------------------|--------------------------------|

 |       |       |       |        |       |       |       |        
|----3---------------------------|----------------0-------0-------|
|6-----------4---3-------4-------|------------0-------------------|
|3-----------3-------------------|--------0-----------------------|
|5-----------5-------------------|----3---------------------------|
|------------3-------------------|--------------------------------|
|--------------------------------|3---------------------------3---|

 |       |       |       |        |       |       |       |        
|----------------0---------------|3-------------------------------|
|--------0-------0---------------|5---------------1---------------|
|----0-----------0---------------|4---------------0---------------|
|3-------------------------------|5---------------2---------------|
|--------------------------------|3---------------0---------------|
|--------------------------------|--------------------------------|

 |       |       |       |        |       |       |       |        
|----0---1---0-------------------|0---1---3---1-------------------|
|3-------2-----------------------|0-----------------------1-------|
|2-------2---------------0-------|0-------------------0-----------|
|0-------0-----------0-----------|2-----------------2-------------|
|------------------2-------------|3---------------0---------------|
|----------------3---------------|--------------------------------|

 |       |       |       |        |       |       |       |        
|1---3---5---3---1---3---5---7---|8---8-------8---7-------5-------|
|3-------6-------0---------------|10--10------10--8-------6-------|
|2-------6-------0---------------|9---9-------9---7-------5-------|
|0---------------0---------------|10--10------10--9-------7-------|
|--------------------------------|8---8-------8---7-------5-------|
|--------------------------------|--------------------------------|

 |       |       |       |        |       |       |       |        
|3-------------------------------|----0---3---1---0-------0-------|
|5---------------5---------------|3-------1---------------0-------|
|4---------------4---------------|2-------2---------------0-------|
|5---------------5---------------|0-------0---------------3-------|
|3---------------4---------------|------------------------2-------|
|--------------------------------|--------------------3-----------|

 |       |       |       |        |       |       |       |        
|--------------------------------|----------------0---------------|
|--------------------------------|------------3---1---------------|
|--------5---------------5-------|--------5-------0---------------|
|----3-------3-------3-------3---|----3-----------2---------------|
|--------------------------------|----------------3---------------|
|5---------------4---------------|3---------------0---------------|

 |       |       |       |        
|--------------------------------|
|--------------------------------|
|--------------------------------|
|--------------------------------|
|--------------------------------|
|--------------------------------|





Comments


Popular Frank Sinatra tabs & chords
East Of The Sun Chords
Fly Me To The Moon 5 Chords
I've Got You Under My Skin 2 Chords
Saturday Night Is The Loneliest Night In The Week Chords
Strangers In The Night Chords
The Nearness Of You Chords
The Way You Look Tonight 2 Chords
A Foggy Day Tabs
Mack The Knife Tabs
New York New York Ukulele


Song lyrics



↑ Back to top | Tablatures and chords are parodies/interpretations of the original songs. You may use it for private study, scholarship, research or language learning purposes only
© 2014 AZChords.com Contact us | Privacy policy | DMCA | Add/correct tabs | Request tabs | Top 50 tabs