» » »

Night And Day Tabs (ver.1)

Artists:  A B C D E F G H I J K L M N O P Q R S T U V W X Y Z # 

Night And Day Tabs (ver.1)

Frank Sinatra
Rating:
0/5 (0 votes)

Hard to play? Try these video lessons and learn fast.
                Night and Day by Cole Porter
Arranged by Tony Crowley

 |       |       A#M9    |        |       |       |       |        
|----------------5-------5-------|5-------------------------------|
|----------------3-------3-------|3-------------------------------|
|----------------3-------3-------|3-------------------------------|
|----------------3-------3-------|3-------------------------------|
|--------------------------------|--------------------------------|
|--------------------------------|----------------3-------4-------|
 
 Aaug7   |       Edim7   |        DM7     |       |       |        
|--------5-------3---2---1-------|5-------------------------------|
|--------6-------2---------------|7-------------------------------|
|--------6-------3---------------|6-------------------------------|
|--------5-------2---------------|7-------------------------------|
|--------------------------------|5-------------------------------|
|5-------------------------------|--------------------------------|
 
 Bm7     |       |       |        A#M9    |       |       |        
|------------------------2-------|5-------5-------5-------5-------|
|----------------3---------------|3-------3-------3-------3-------|
|--------2-----------------------|3-------3-------3-------3-------|
|----4---------------------------|3-------3-------3-------3-------|
|2-------------------------------|--------------------------------|
|--------------------------------|--------------------------------|
 
 Aaug7   |       Edim7   |        DM7     |       CM7     C#M7     
|--------5-------3---2---1-------|--------------------------------|
|--------6-------2---------------|7---------------5-------6-------|
|--------6-------3---------------|6---------------4-------5-------|
|--------5-------2---------------|7---------------5-------6-------|
|--------------------------------|5---------------3-------4-------|
|5-------------------------------|--------------------------------|
 
 DM7     |       |       |        Abm7    |       |       |        
|--------------------------------|--------------------------------|
|7-------------------------------|7-------7-------7---7-----------|
|6-------------------------------|4-------4-------4---4-----------|
|7-------------------0---2-------|4-------4-------4---4-----------|
|5---0---2---4-------------------|--------------------------------|
|--------------------------------|4-------4-------4---4-----------|
 
 Gm7     |       |       |        F#m7    |       |       |        
|--------------------------------|--------------------------------|
|6-----------------------6---6---|5-------5-------5---5-----------|
|3-----------------------3---3---|2-------2-------2---2-----------|
|3-----------------------3---3---|2-------2-------2---2-----------|
|--------------------------------|--------------------------------|
|3-----------------------3---3---|2-------2-------2---2-----------|
 
 |       F#m13   Fm13    Fm11     G       |       Aaug7   |        
|--------------------------------|--------------------------------|
|5-------4-------3-------2-------|0-------2-----------------------|
|2-------2-------1-------1-------|0-----------------------6-------|
|2-------2-------1-------1-------|0-------------------5-----------|
|--------------------------------|2-------------------------------|
|2-------2-------1---------------|----------------5---------------|
 
 |       |       |       |        DM7     |       |       |        
|----------------5-------5-------|5-------------------------------|
|6---------------6-------6-------|7-------------------------------|
|6---------------6-------6-------|6-------------------------------|
|----------------5-------5-------|7-------------------------------|
|--------------------------------|5-------------------------------|
|--------------------------------|--------------------------------|
 
 |       |       FM7     |        FM7     |       |       |        
|----------------5-------5-------|8-------------------------------|
|----------------5-------5-------|10------------------------------|
|----------------5-------5-------|9-------------------------------|
|----------------3-------3-------|10------------------------------|
|----------------3-------3-------|8-------------------------------|
|--------------------------------|--------------------------------|
 
 |       |       FM7     |        DM7     |       |       |        
|----------------5---3---1-------|5-------5-------5---------------|
|----------------5---------------|7-------7-------7---------------|
|----------------5---------------|6-------6-------6---------------|
|----------------3---------------|7-------7-------7---------------|
|--------------------------------|5-------5-------5---------------|
|--------------------------------|--------------------------------|
 
 |       |       |       |        FM7     |       |       |        
|------------------------5-------|8---10------8---10------8-------|
|------------------------7-------|10------------------------------|
|------------------------6-------|9-------------------------------|
|------------------------7-------|10------------------------------|
|------------------------5-------|8-------------------------------|
|--------------------------------|--------------------------------|
 
 |       |       |       |        DM7     |       |       |        
|10------8-----------------------|5-------5-------5---------------|
|8---------------10--8-----------|7-------7-------7---------------|
|9-----------------------10------|6-------6-------6---------------|
|8-------------------------------|7-------7-------7---------------|
|--------------------------------|5-------5-------5---------------|
|--------------------------------|--------------------------------|
 
 |       |       |       |        Abm7    |       |       |        
|--------------------------------|--------------------------------|
|7-------------------------------|7-------7-------7---7-----------|
|6-------------------------------|4-------4-------4---4-----------|
|7-------------------0---2-------|4-------4-------4---4-----------|
|5---0---2---4-------------------|--------------------------------|
|--------------------------------|4-------4-------4---4-----------|
 
 Gm7     |       |       |        F#m7    |       |       |        
|--------------------------------|--------------------------------|
|6-----------------------6---6---|5-------5-------5---5-----------|
|3-----------------------3---3---|2-------2-------2---2-----------|
|3-----------------------3---3---|2-------2-------2---2-----------|
|--------------------------------|--------------------------------|
|3-----------------------3---3---|2-------2-------2---2-----------|
 
 | F#m13 Fm13    Fm6#5/m6/dim7    | A7    |       |       |        
|----------------9---8---7-------|5-------5-------5---------------|
|5---4---3-------6---6---6-------|5-------5-------5---------------|
|2---2---1-------7---7---7-------|6-------6-------6---------------|
|2---2---1-------6---6---6-------|5-------5-------5---------------|
|--------------------------------|7-------7-------7---------------|
|2---2---1-----------------------|5-------5-------5---------------|
 
 |       |       Gm6     |        D       |       |       |        
|----------------10------10------|10------------------------------|
|----------------8-------8-------|10------------------------------|
|----------------9-------9-------|11------------------------------|
|----------------8-------8-------|0-------------------------------|
|----------------0-------0-------|0-------------------------------|
|--------------------------------|--------------------------------|
 
 |       |       |       |        DM7     |       |       |        
|--------------------------------|----------------5---------------|
|--------------------------------|------------7-------------------|
|--------------------------------|--------6-----------------------|
|--------------------------------|----7---------------------------|
|--------------------------------|5-------------------------------|
|--------------------------------|--------------------------------|
 
            
Hard to play? Try these video lessons and learn fast. | Correct




comments powered by Disqus
↑ Back to top | Tablatures and chords are parodies/interpretations of the original songs. You may use it for private study, scholarship, research or language learning purposes only