» » »

Frank Sinatra, My Way Tabs (ver.2)

Artists:  A B C D E F G H I J K L M N O P Q R S T U V W X Y Z # 

My Way Tabs (ver.2)

Frank Sinatra Tabs
 Rating:
4.4/5 (7 votes)
My Way lessons Tabs too difficult? Try these video lessons and learn fast
                

----------------------------------------------------------------------------
                             MY WAY - Frank Sinatra
----------------------------------------------------------------------------


My Way, the easy and accurate way
Tuning: EADGBe (capo fret 2 for album pitch)


VERSE:

and now  the end is near   and so i face  the final curtain,      my
e|----------0---------------0---------------0------------------------------|
B|------1-------1-------3-------3-------3-------3-----------2--------------|
G|----0---0---0---0---0---0---0---0---0---0---0---0-----0-------0----------|
D|----------------------------------------------------2---2---2---2--------|
A|--3---------------2---------------1---------------0----------------------|
E|-------------------------------------------------------------------------|

    friend            i'll state my case
        i'll say it clear              of which i'm certain,      I've
e|----------1---------------1---------------1---------------0--------------|
B|------3-------3-------1-------1-------0-------0-------1-------1----------|
G|----2---2---2---2---2---2---2---2---0---0---0---0---0---0---0---0--------|
D|--0---------------0------------------------------------------------------|
A|--------------------------------------------------3----------------------|
E|----------------------------------3--------------------------------------|

    lived            I've travelled each                          and
      a life that's full                  and every highway
e|----------3---------------3---------------1---------------1--------------|
B|------1-------1-------1-------1-------1-------1-------1-------1----------|
G|----0---0---0---0---3---3---3---3---2---2---2---2---1---1---1---1--------|
D|-------------------------------------------------------------------------|
A|--3---------------3------------------------------------------------------|
E|----------------------------------1---------------1----------------------|

    more                   I did it my-----
     much more than this                            way-----
e|----------0---------------1---------------1---------------0--------------|
B|------1-------1-------0-------0-------3-------3-------1-------1----------|
G|----0---0---0---0---0---0---0---0---2---2---2---2---0---0---0---0--------|
D|-------------------------------------------------------------------------|
A|--3-------------------------------3---------------3----------------------|
E|------------------3------------------------------------------------------|



CRESCENDO:    (yes there were-

    times                when I bit off                       but through it
       I'm sure you knew          more than I could chew
e|----------3---------------3---------------1---------------1--------------|
B|------1-------1-------1-------1-------1-------1-------1-------1----------|
G|----0---0---0---0---3---3---3---3---2---2---2---2---2---2---2---2--------|
D|-------------------------------------------------------------------------|
A|--3---------------3------------------------------------------------------|
E|----------------------------------1---------------1----------------------|

    all                    I ate it up                         I faced it
     when there was doubt               and spit it out
e|----------1---------------1---------------0---------------0--------------|
B|------1-------1-------0-------0-------0-------0-------1-------1----------|
G|----2---2---2---2---0---0---0---0---0---0---0---0---2---2---2---2--------|
D|--0----------------------------------------------------------------------|
A|--------------------------------------------------0----------------------|
E|------------------3---------------0--------------------------------------|


    all
e|----------1---------------1---------------1---------------0--------------|
B|------1-------1-------0-------0-------3-------3-------1-------1----------|
G|----2---2---2---2---0---0---0---0---2---2---2---2---0---0---0---0--------|
D|--0----------------------------------------------------------------------|
A|----------------------------------3---------------3----------------------|
E|------------------3------------------------------------------------------|


wash, rinse and repeat

============================================================================
            
Submit corrections

comments powered by Disqus
↑ Back to top | Frank Sinatra Tabs for My Way. Lyrics for acoustic guitar and electric guitar. Tablatures and chords are parodies/interpretations of the original songs. You may use it for private study, scholarship, research or language learning purposes only