» » »

Frank Sinatra, My Way Tabs (ver.1)

Artists:  A B C D E F G H I J K L M N O P Q R S T U V W X Y Z # 

My Way Tabs (ver.1)

Frank Sinatra Tabs
Rating:
5/5 (5 votes)
My Way lessons Tabs too difficult? Try these video lessons and learn fast
                (2x)
e|------------------------------------------------|
B|------------------------------------------------|
G|------------------------------------------------|
D|-----9--------9-7-9-----9-7-9----7-9-7-7--------|
A|-----------------------------------------11-----|
E|--10-------10--------10-------------------------|

e|------------------------------------------------|
B|------------------------------------------------|
G|------------------------------------------------|
D|-----10-----------10-9-10-------10-9-10---------|
A|--7---------7-7-------------7-------------------|
E|------------------------------------------------|

e|------------------------------------------------|
B|------------------------------------------------|
G|---7------------------7-----7-9-7-----9---7-----|
D|-----7-7--10-9----11------11------------9---10--|
A|------------------------------------------------|
E|------------------------------------------------|

e|----------------------------------------|
B|----------------------------------------|
G|----------7-----------------------------|
D|--10-10-9--10------10-9-------10-9-7----|
A|----------------------------------------|
E|--------------------------10------------|

e|-----------------------------|
B|-----------------------------|
G|-----------------------------|        
D|--------7-7------------------|        
A|---9-10---------10-----------|
E|-----------------------------|

*****************************************************

e|----------------------------------------|
B|----------------------------------------|
G|-----------7-7----9-7----7------7--9-9--|
D|---9-9-10-------------11------11--------|
A|----------------------------------------|
E|----------------------------------------|

e|------------------------------------------------|
B|------------------7-8-8-----8--7-----7-8-10-10--|
G|---7-7-9-7-9----9----------9-9------------------|
D|------------------------------------------------|
A|------------------------------------------------|
E|------------------------------------------------|


e|---7-----------------------------------------------------|
B|----7--10-8------7--8-8----8--7----7-8-10-10-----8-------|
G|----------------9---------9-9----------------------------|
D|---------------------------------------------------------|
A|---------------------------------------------------------|
E|---------------------------------------------------------|
            
Submit corrections

comments powered by Disqus
↑ Back to top | Frank Sinatra Tabs for My Way. Lyrics for acoustic guitar and electric guitar. Tablatures and chords are parodies/interpretations of the original songs. You may use it for private study, scholarship, research or language learning purposes only