» » »

Love Tabs (ver.1)

Artists:  A B C D E F G H I J K L M N O P Q R S T U V W X Y Z # 

Love Tabs (ver.1)

Frank Sinatra
Rating:
3/5 (1 vote)

Hard to play? Try these video lessons and learn fast.
                This is my first tab, and is dedicated to the love of my life, the one who put me to 
Sinatra... Luv u Pao Y. n serio... :P!...Paul27

      G
e-|----------------------||
B-|-----3---5-----7---5--||
G-|-----4---4-----4---4--||
D-|-----5---5-----5---5--||   x2
A-|----------------------||
E-|--3------3---3----3---||

     G                    Am        D7
e-|---------------------------------------------||
B-|-----3---5-----7---5-------3---5------7---7--||
G-|-----4---4-----4---4-------5---5------5---5--||
D-|-----5---5-----5---5-------x---x------x---x--||
A-|-----------------------------------5------5--||
E-|--3------3---3-----3----5------5-------------||


     Am         D7         G
e-|---------------------------------------------||
B-|-----3---5-----7---5-------3---5------7---5--||
G-|-----5---5-----5---5-------4---4------4---4--||
D-|-----x---x-----x---x-------5---5------5---5--||
A-|-------------5-----5-------------------------||
E-|--5------5--------------3------3---3------3--||


     G7                    C
e-|---------------------------------------------||
B-|-----3---5-----7---5-------3---5------7---7--||
G-|-----4---4-----4---4-------3---3------3---3--||
D-|-----3---3-----3---3-------x---x------x---x--||
A-|------------------------3------3---3------3--||
E-|--3------3---3-----3-------------------------||

     A                     E7
e-|---------------------------------------------||
B-|-----5---7-----8---7-------5---7------8---7--||
G-|-----6---6-----6---6-------5---5------5---3--||
D-|-----7---7-----7---7-------7---7------7---7--||
A-|------------------------5------5---5------5--||
E-|--5------5---5-----5-------------------------||

     G7                    C7
e-|---------------------------------------------||
B-|-----3---5-----7---5-------3---5------7---7--||
G-|-----4---4-----4---4-------3---3------3---3--||
D-|-----3---3-----3---3-------5---5------5---5--||
A-|------------------------3------3---3------3--||
E-|--3------3---3-----3-------------------------||

     G         D7        G
e-|----------------------------||
B-|---3---5----3-----3---3-----||
G-|---4---4----5-----5---4-----||
D-|---5---5----4-----4---5-----||
A-|------------5-----5---------||
E-|---3---3--------------3-----||

Chords:

G                   Am      D7
L is for the way you look at me
Am   D             G
O is for the only one I see
G7              C
V is very, very extraordinary
A                  D7
E is even more than anyone that you adore can
 G                     Am      D7
Love is all that I can give to you
 Am       D               G
Love is  more than just a game for two
  G7
Two in love can make it
 C7
Take my heart and please don't breake it
 G        D7              G
Love was made for me and you.
            
Hard to play? Try these video lessons and learn fast. | Correct




comments powered by Disqus
↑ Back to top | Tablatures and chords are parodies/interpretations of the original songs. You may use it for private study, scholarship, research or language learning purposes only