» » »

Frank Sinatra, Fly Me To The Moon Tabs (ver.1)

Artists:  A B C D E F G H I J K L M N O P Q R S T U V W X Y Z # 

Fly Me To The Moon Tabs (ver.1)

Frank Sinatra Tabs
 Rating:
4.5/5 (8 votes)
Fly Me To The Moon lessons Tabs too difficult? Try these video lessons and learn fast
                
Tuning: EADGBE  Time Signature: 4/4

       
|8-------7-------5-------3-------|1-------3-------5-------8-------|
|5-------5-------5-------2-------|1-------1-------6-------6-------|
|5-------5-------5-------3-------|2-------2-------5-------5-------|
|7-------6-------5-------2-------|0-------0-------7-------7-------|
|--------------------------------|----------------0---------------|
|--------------------------------|--------------------------------|
       
|7-------5-------3-------1-------|--------------------------------|
|6-------6-------5-------3-------|3---------------1---------------|
|7-------7-------4-------2-------|0---------------0---------------|
|5-------5-------0-------0-------|2---------------2---------------|
|--------------------------------|3---------------3---------------|
|--------------------------------|--------------------------------|

       
|5-------3-------1-------0-------|--------0-------1-------5-------|
|5---------------3---------------|3-------------------------------|
|5---------------2---------------|2-------------------------------|
|3---------------3---------------|3-------------------------------|
|--------------------------------|2-------------------------------|
|--------------------------------|--------------------------------|

        
|4-------1-------0---------------|0---------------0---------------|
|3---------------0-------3-------|1---------------2---------------|
|4---------------2---------------|2---------------0---------------|
|3---------------0---------------|2---------------2---------------|
|----------------2---------------|0---------------0---------------|
|--------------------------------|--------------------------------|
     
|1-------5-------5---------------|----------------8-------7-------|
|3-------5-------5---------------|----------------7---------------|
|2-------5-------5---------------|----------------8---------------|
|3-------3-------3---------------|----------------7---------------|
|--------------------------------|--------------------------------|
|--------------------------------|--------------------------------|

       
|--------3---------------5-------|----------------7-------6-------|
|--------5---------------6-------|------------8-----------7-------|
|--------4---------------5-------|--------7---------------6-------|
|----5---------------7-----------|----9-------------------8-------|
|3---------------5---------------|7-----------------------6-------|
|--------------------------------|--------------------------------|

        
|5---5-----------5---------------|----------------1-------3-------|
|6---6-----------6---------------|----------------1-------3-------|
|5---5-----------5---------------|----------------2-------4-------|
|7---7-----------7---------------|--------------------------------|
|5---5-----------5---------------|--------------------------------|
|--------------------------------|--------------------------------|

      
|1---------------0---------------|--------------------------------|
|1---------------0---------------|------------5---------------5---|
|2---------------0---------------|--------7---------------7-------|
|----------------2---------------|----7---------------6-----------|
|----------------3---------------|--------------------------------|
|--------------------------------|7---------------6---------------|

        
|8-------7-------5-------3-------|1-------3-------5-------8-------|
|5-------5-------5-------2-------|1-------1-------6-------6-------|
|5-------5-------5-------3-------|2-------2-------5-------5-------|
|7-------6-------5-------2-------|0-------0-------7-------7-------|
|--------------------------------|----------------0---------------|
|--------------------------------|--------------------------------|

        
|7-------5-------3-------1-------|--------------------------------|
|6-------6-------5-------3-------|3---------------1---------------|
|7-------7-------4-------2-------|0---------------0---------------|
|5-------5-------0-------0-------|2---------------2---------------|
|--------------------------------|3---------------3---------------|
|--------------------------------|--------------------------------|

       
|5-------3-------1-------0-------|--------0-------1-------5-------|
|5---------------3---------------|3-------------------------------|
|5---------------2---------------|2-------------------------------|
|3---------------3---------------|3-------------------------------|
|--------------------------------|2-------------------------------|
|--------------------------------|--------------------------------|

       
|4-------1-------0---------------|0---------------0---------------|
|3---------------0-------3-------|1---------------2---------------|
|4---------------2---------------|2---------------0---------------|
|3---------------0---------------|2---------------2---------------|
|----------------2---------------|0---------------0---------------|
|--------------------------------|--------------------------------|

        
|1-------5-------5---------------|----------------8-------7-------|
|3-------5-------5---------------|----------------7---------------|
|2-------5-------5---------------|----------------8---------------|
|3-------3-------3---------------|----------------7---------------|
|--------------------------------|--------------------------------|
|--------------------------------|--------------------------------|
       
|12------------------------------|12------------------------------|
|12------------------------------|12----------------------0-------|
|12------------------------------|12------------------------------|
|10------------------------------|11------------------------------|
|--------------------------------|--------------------------------|
|--------------------------------|--------------------------------|

    
|--------------------------------|--------------------------------|
|--------6-------6---------------|----------------6-------0-------|
|5---------------5---------------|----------------4-------4-------|
|6---------------6---------------|----------------6-------3-------|
|5---------------5---------------|----------------4-------4-------|
|--------------------------------|--------------------------------|

        
|0-------------------------------|--------------------------------|
|1-------------------------------|--------------------------------|
|0-------------------------------|--------------------------------|
|2-------------------------------|--------------------------------|
|3-------------------------------|--------------------------------|
|0-------------------------------|--------------------------------|

        
|--------------------------------|--------------------------------|
|------------------------8-------|------------------------8-------|
|----------------10--------------|----------------10--------------|
|--------10----------------------|--------9-----------------------|
|--------------------------------|--------------------------------|
|10------------------------------|9-------------------------------|

     
|--------------------------------|7---8-----------5---7-----------|
|------------------------8-------|--------------------------------|
|----------------9---------------|--------------------------------|
|--------9-----------------------|--------------------------------|
|--------------------------------|--------------------------------|
|8-------------------------------|--------------------------------|

      
|3---5c----------0---------------|
|----------------0---------------|
|----------------0---------------|
|----------------2---------------|
|----------------3---------------|
|--------------------------------|
            
Submit corrections

comments powered by Disqus
↑ Back to top | Frank Sinatra Tabs for Fly Me To The Moon. Lyrics for acoustic guitar and electric guitar. Tablatures and chords are parodies/interpretations of the original songs. You may use it for private study, scholarship, research or language learning purposes only