>
 >
All The Things You Are

All The Things You Are Guitar Tabs

Frank Sinatra - All The Things You Are chords, tabs, tablatures, lyrics

Guitar lessons | Add/correct | Request | Top 50 tabs Artists:  A B C D E F G H I J K L M N O P Q R S T U V W X Y Z 0-9

All The Things You Are Guitar Tabs – Frank Sinatra

CD, Sheet music, Poster

Do you like All The Things You Are? Share with your friends now
Tabs


 | Fm7   |       |       |        | Bbm7  |       |       |        
|--------------------------------|9-------------------------------|
|9-----------------------9-------|9-----------------------9-------|
|8---------------8---------------|10------------------------------|
|10------10----------------------|8-------------------------------|
|8-------------------------------|--------------------------------|
|--------------------------------|--------------------------------|
 
 | Eb7   |       |       |        | AbM7  |       |       |        
|--------------------------------|--------8-----------------------|
|8-------8-------8-------8-------|8-------8---------------8-------|
|6---------------6---------------|8-------8-----------------------|
|8---------------8---------------|6-------------------------------|
|6---------------6---------------|6-------------------------------|
|--------------------------------|--------------------------------|
 
 | C#M7  |       |       |        | G7    |       |       |        
|--------------------------------|--------7-----------------------|
|6-----------------------6-------|6-------6---------------6-------|
|5---------------5---------------|7-------7-----------------------|
|6-------6-----------------------|5-------5-----------------------|
|4-------------------------------|5-------------------------------|
|--------------------------------|--------------------------------|
 
 | CM7   |       |       |        |       |       |       |        
|--------------------------------|--------------------------------|
|5-------------------------------|--------------------------------|
|4-------------------------------|--------------------------------|
|5-------------------------------|--------------------0---1---3---|
|3-------------------------------|--------0---2---3---------------|
|--------------------------------|----3---------------------------|
 
 | Cm7   |       |       |        | Fm7   |       |       |        
|--------------------------------|4-------------------------------|
|4-----------------------4-------|4-----------------------4-------|
|3---------------3---------------|5-------------------------------|
|5-------5-----------------------|3-------------------------------|
|3-------------------------------|--------------------------------|
|--------------------------------|--------------------------------|
 
 | Bb7   |       |       |        | EM7   |       |       |        
|--------------------------------|--------3-----------------------|
|3-------3-------3-------3-------|3-------3---------------3-------|
|1---------------1---------------|3-------3-----------------------|
|3---------------3---------------|1-------1-----------------------|
|1---------------1---------------|1-------------------------------|
|--------------------------------|--------------------------------|
 
 | AbM7  |       |       |        | Am11  |       |       |        
|--------------------------------|--------------------------------|
|--------4-------4-------4-------|--------3---4---3---------------|
|--------5-------5-------5-------|--------5---5---5-------5-------|
|--------5-------5-------5-------|--------5---5---5-------5-------|
|--------------------------------|--------------------------------|
|4-------------------------------|5---------------5---------------|
 
 | GM7   |       | Am7   | Bbm7   | Bm7   |       |       |        
|--------------------------------|------------------------10------|
|--------3-----------------------|----------------8---------------|
|--------4-------5-------6-------|7-------7-----------------------|
|--------4-------5-------6-------|7-------------------------------|
|--------------------------------|--------------------------------|
|3---------------5-------6-------|7-------------------------------|
 
 | EbM9  | Cm6   |       |        |       | Adim7 |       |        
|10------8-------8---------------|------------------------8-------|
|8-------8-------8---------------|------------------------7-------|
|8-------8-------8---------------|--------7-------8-------8-------|
|8-------7-------7---------------|------------------------7-------|
|--------------------------------|--------------------------------|
|--------------------------------|--------------------------------|
 
 | GM7   |       |       |        |       | G     |       |        
|7-------------------------------|------------------------7-------|
|7-------------------------------|----------------8---------------|
|7-------------------------------|--------7-----------------------|
|5-------------------------------|--------------------------------|
|5-------------------------------|--------------------------------|
|--------------------------------|--------------------------------|
 
 | CM9   | Am6   |       |        |       | B7    | Adim7 |        
|7-------5-------5---------------|------------------------5-------|
|5-------5-------5---------------|------------------------4-------|
|5-------5-------5---------------|--------4-------5-------5-------|
|5-------4-------4---------------|------------------------4-------|
|--------------------------------|--------------------------------|
|--------------------------------|--------------------------------|
 
 | EM7   |       |       |        | Abm6  |       |       |        
|------------------------4-------|------------------------4-------|
|----------------4---------------|----------------4---------------|
|--------4-----------------------|--------4-----------------------|
|2-------------------------------|3-------------------------------|
|--------------------------------|--------------------------------|
|--------------------------------|--------------------------------|
 
 | Fm7   |       |       |        | Bbm7  |       |       |        
|--------------------------------|9-------------------------------|
|9-----------------------9-------|9-----------------------9-------|
|8---------------8---------------|10------------------------------|
|10------10----------------------|8-------------------------------|
|8-------------------------------|--------------------------------|
|--------------------------------|--------------------------------|
 
 | Eb7   |       |       |        | AbM7  |       |       |        
|--------------------------------|--------8-----------------------|
|8-------8-------8-------8-------|8-------8---------------8-------|
|6---------------6---------------|8-------8-----------------------|
|8---------------8---------------|6-------------------------------|
|6---------------6---------------|6-------------------------------|
|--------------------------------|--------------------------------|
 
 | C#M7b5|       |       |        | EM9   |       | E6    |        
|--------------------------------|11--------------9---------------|
|6-----------------------6-------|9---------------9---------------|
|5---------------5---------------|9---------------9---------------|
|6-------6-----------------------|9---------------9---------------|
|4-------------------------------|--------------------------------|
|--------------------------------|--------------------------------|
 
 | Cm7   |       |       |        | A9    |       |       | F7     
|--------------------------------|--------------------------------|
|--------------------------------|8-----------------------6-------|
|--------8-------8---8---8-------|8-------------------------------|
|--------8-------8---8---8-------|7-------------------------------|
|--------------------------------|8-------------------------------|
|8-------------------------------|--------------------------------|
 
 | Bbm7  |       |       |        | C#M7b5|       | A7    |        
|--------------------------------|13------------------------------|
|----------------6-------9-------|13------------------------------|
|--------6-----------------------|12--------------12--------------|
|----6---------------------------|11--------------11--------------|
|--------------------------------|----------------0---------------|
|6-------------------------------|----------------12--------------|
 
 | Ab    |       |       |        
|4-------------------------------|
|4-------------------------------|
|5-------------------------------|
|6-------------------------------|
|6-------------------------------|
|4-------------------------------|
 





Comments


Popular Frank Sinatra tabs & chords
Unforgettable Bass Tabs
Fly Me To The Moon 5 Chords
I Wont Dance Chords
My Way 4 Chords
My Way 6 Chords
New York New York 1 Chords
Mack The Knife Tabs
The Way You Look Tonight Ukulele
Two Sleepy People Ukulele
Young At Heart Ukulele


Song lyrics



↑ Back to top | Tablatures and chords are parodies/interpretations of the original songs. You may use it for private study, scholarship, research or language learning purposes only
© 2014 AZChords.com Contact us | Privacy policy | DMCA | Add/correct tabs | Request tabs | Top 50 tabs