» » »

Frank Ocean, Thinking About You Tabs (ver.1)

Artists:  A B C D E F G H I J K L M N O P Q R S T U V W X Y Z # 

Thinking About You Tabs (ver.1)

Frank Ocean Tabs
Rating:
0/5 (0 votes)
Hard to play? Try these video lessons and learn fast.
                
I made this a tab because I kind of made up a melody to the chorus so it had a 
little variety. I play this on an electric guitar 
with a slight distortion and reverb and it sounds good played this way.





Verse/Bridge/Outro

   Fmaj7  Dmaj7  Em7    Am

E|--x------x------x------x-
B|--x------x------x------x-
G|--x------5------x------5-
D|--2------3------0------7-
A|--3------5------2------x-
E|--1------x------0------x-


Chorus

E|--x--------------x-----------------x------------------x---------------------|
B|--x--------------x-----------------x------------------x--------------5h6p5--|
G|--x--------------5-----------------x------------------5--------5--7---------|
D|--2--------------3--------5--3-----0------------------7--7--7---------------|
A|--3-----------3--5--5--5--------5--2--------2--3h2p0--x---------------------|
E|--1--1--1--3-----x-----------------0--0--0------------x---------------------|
 pm    .  .           .  .              .  .               .  .



Verse

Fmaj7  Dmaj7  Em7  Am   x4


Chorus

E|--x--------------x-----------------x------------------x---------------------|
B|--x--------------x-----------------x------------------x--------------5h6p5--|
G|--x--------------5-----------------x------------------5--------5--7---------|
D|--2--------------3--------5--3-----0------------------7--7--7---------------|     x4
A|--3-----------3--5--5--5--------5--2--------2--3h2p0--x---------------------|
E|--1--1--1--3-----x-----------------0--0--0------------x---------------------|
 pm    .  .           .  .              .  .               .  .


Verse

Fmaj7  Dmaj7  Em7  Am   x4


Chorus

E|--x--------------x-----------------x------------------x---------------------|
B|--x--------------x-----------------x------------------x--------------5h6p5--|
G|--x--------------5-----------------x------------------5--------5--7---------|
D|--2--------------3--------5--3-----0------------------7--7--7---------------|     x4
A|--3-----------3--5--5--5--------5--2--------2--3h2p0--x---------------------|
E|--1--1--1--3-----x-----------------0--0--0------------x---------------------|
 pm    .  .           .  .              .  .               .  .


Bridge

Fmaj7  Dmaj7  Em7  Am   x4


Chorus

E|--x--------------x-----------------x------------------x---------------------|
B|--x--------------x-----------------x------------------x--------------5h6p5--|
G|--x--------------5-----------------x------------------5--------5--7---------|
D|--2--------------3--------5--3-----0------------------7--7--7---------------|     x4
A|--3-----------3--5--5--5--------5--2--------2--3h2p0--x---------------------|
E|--1--1--1--3-----x-----------------0--0--0------------x---------------------|
 pm    .  .           .  .              .  .               .  .


Outro

Fmaj7  Dmaj7  Em7  Am  (fade  out)
            

comments powered by Disqus
↑ Back to top | Frank Ocean Tabs for Thinking About You. Lyrics for acoustic guitar and electric guitar. Tablatures and chords are parodies/interpretations of the original songs. You may use it for private study, scholarship, research or language learning purposes only