» » »

Superproxy2k6 Bass tabs (ver.1)

Artists:  A B C D E F G H I J K L M N O P Q R S T U V W X Y Z # 

Superproxy2k6 Bass tabs (ver.1)

Francis M
Rating:
0/5 (0 votes)

Tabs too difficult? Try these video lessons and learn fast.
                Intro: Lead (4x)

---------------------------------------|
---------------------------------------|
---------------------------------------| 
--6-6------6-6------6-6-6------6-6-----|

---------------------------------------|
----------------------3----------------|
----4-4---4-4---4---4---6--4-----------| x4
--6-----6-----6---6--------------------|

Verse:
sawa ka na ba...
-----------------|
-----------------|
----------6--6---| x6
---6--6----------|
Refrain:
ito ang kailangan mo...
-------------------------------------|
-------------------------------------|
-------------------------------------| 
--2-2-2-2-2-2-2-2--4-4-4-4-4-4-4-4---|
i-dial lang ang telepono...
-------------------------------------|
-------------------------------------|
-------------------------------------| 
--2-2-2-2-2-2-2-2--6-6-6-6-6-6-6-6---|
Chorus:
hindi na dapat maghirap...
-------------------------------------|
-------------------------------------|
--4-4-4-4-4-4-4-4--6-6-6-6-6-6-6-6---| 
-------------------------------------|
sa iisang iglap..
-------------------------------------|
-------------------------------------|
--4-4-4-4-4-4-4-4--6-6-6-6-6-6-6-6---| 
-------------------------------------|
ang buhay mo ay sasarap...wag lang
-------------------------------------|
-------------------------------------|
--4-4-4-4-4-4-4-4--6-6-6-6-6-6-6-6---| 
-------------------------------------|
mag-atubiling kumuha ng SUPERPROXY...
------------------------|
------------------------|
--8-8-8-8-8-8-8-8-------| 
-------------------6----|
Interlude:
-----------------------|
-----------------------|
-----------------------| 
---6-6------6-6-6------|

Verse 2: (Do verse1)
Rerfrain 2: (Do refrain 1)
 Ako ang kailangan mo 
 Isaksak lang ang modem n'yo..
Chorus 2: (Do chorus 1)
 Hindi na dapat maghirap
 Sa iisang iglap
 Ang buhay mo ay sasarap huwag nang mag-atubili
 Gumamit ka ng superproxy

---------------------------------------|
----------------------3----------------|
----4-4---4-4---4---4---6--4-----------| x4
--6-----6-----6---6--------------------|

Adlib: faster...
---------------------------------------|
----------------------3----------------|
----4-4---4-4---4---4---6--4-----------| x4
--6-----6-----6---6--------------------|

Rap:
---------------------------------------|
----------------------3----------------|
----4-4---4-4---4---4---6--4-----------| x8
--6-----6-----6---6--------------------|
            
Tabs too difficult? Try these video lessons and learn fast.




comments powered by Disqus
↑ Back to top | Tablatures and chords are parodies/interpretations of the original songs. You may use it for private study, scholarship, research or language learning purposes only