>
 >
Superporxy2k6

Superporxy2k6 Guitar Tabs

Francis M - Superporxy2k6 chords, tabs, tablatures, lyrics

Guitar lessons | Add/correct | Request | Top 50 tabs Artists:  A B C D E F G H I J K L M N O P Q R S T U V W X Y Z 0-9

Superporxy2k6 Guitar Tabs – Francis M

CD, Sheet music, Poster

Do you like Superporxy2k6? Share with your friends now
Tabs
-----------------------------------------------------------------
Superproxy 2k6 - Francis M (Ultraelectro Magnetic Jam)
-----------------------------------------------------------------
Tuning: Standard E

* Shoutout to my friends RJ, Mayor, Ryan and Gaga *
* Please Rate this tab, Thank You   *-Viewhorizon-*

Intro:

~~drum beat~~  

e|---------------------------------------------------------------| 
B|---------------------------------------------------------------|
G|---6--6-----------6--6----------6--8b9~~~~---------------------|
D|8-------------8--------------8---------------------------------| X 3
A|---------------------------------------------------------------|
E|---------------------------------------------------------------|

e|---------------------------------------------------------------| 
B|---------------------------------------------------------------|
G|---6--6-----------6--6----------6-----6--8b9~~~~---------------|
D|8-------------8--------------8-----8---------------------------| 
A|---------------------------------------------------------------|
E|---------------------------------------------------------------|

e|---------------------------------------------------------------|
B|---------------------------------------------------------------|
G|------------6--8b9~~~---------------------6--8b9~~~------------|
D|8--8-----8-------------------8--8------8-----------------------|
A|8--8-------------------------8--8------------------------------|
E|6--6-------------------------6--6------------------------------|

e|---------------------------------------------------------------|
B|---------------------------------------------------------------|
G|------------6--8b9~~~---------------------6--8b9~~~------------|
D|8--8--8--8-------------------8--8------8-----------------------|
A|8--8--8----------------------8--8------------------------------|
E|6--6--6----------------------6--6------------------------------|

Pre-Verse:

e|---------------------------------------------------------------|
B|---------------------------------------------------------------|
G|---------------------------------------------------------------|
D|---------------------------------------------------------------| X 2
A|----------------------------4b5~--------------------------4h6b7|
E|4--6-6--4--6-6--4--6--4--6------4--6-6--4--6-6--4--6--4--6-----|

Verse 1:
  		   
e|---------------------------------------------------------------|
B|---------------------------------------------------------------|
G|---------6--8b9~~---------6---------------8---------------6----|
D|------8-----------6--8----6--8----6--8----8--8----6--8----6--8-|
A|8--8--------------6--8----4--8----6--8----6--8----6--8----4--8-|
E|6--6--------------4--6-------6----4--6-------6----4--6-------6-|

e|---------------------------------------------------------------|
B|---------------------------------------------------------------|
G|----------8---------------6---------------6---------------8----|
D|--6--8----8--8----6--8----6--8----6--8----6--8----6--8----8--8-|
A|--6--8----6--8----6--8----4--8----6--8----4--8----6--8----6--8-|
E|--4--6-------6----4--6-------6----4--6-------6----4--6-------6-|

Refrain:

e|---------------------------------------------------------------|
B|-----------------------------------------10-10-10\-10-10-------|
G|-----------------------------------------10-10-10\-10-10-------|
D|-4~~~4~~~~-6-6-6-6-6-6-6-6----4~~~4~~~~~-10-10-10\-10-10-------|
A|-4~~~4~~~~-6-6-6-6-6-6-6-6----4~~~4~~~~~-8--8--8-\-8--8--------|
E|-2~~~2~~~~-4-4-4-4-4-4-4-4----2~~~2~~~~~-----------------------|

Chorus:
 <-------------  X 2  ---------------->
e|------------------------------------|--------------------------|
B|------------------------------------|--------------------------|
G|-6-6-6-6-6-6-6-6----8-8-8-8-8-8-8-8-|--------------------------|
D|-6-6-6-6-6-6-6-6----8-8-8-8-8-8-8-8-|--3-3-3-3---3~~~3~~~~-----|
A|-4-4-4-4-4-4-4-4----6-6-6-6-6-6-6-6-|--3-3-3-3---3~~~3~~~~-----|
E|------------------------------------|--1-1-1-1---1~~~1~~~~-----|

Pre-Verse 2:

e|---------------------------------------------------------------|
B|---------------------------------------------------------------|
G|------------6--8b9~~~----------------------6--8b9~~~-----------|
D|8--8-----8-------------------8--8--8----8----------------------|
A|8--8-------------------------8--8--8---------------------------|
E|6--6-------------------------6--6--6---------------------------|

Verse 2:

e|---------------------------------------------------------------|
B|---------------------------------------------------------------|
G|----------6---------------8---------------6--------------------|
D|--6--8----6--8----6--8----8--8----6--8----6--8-----------------|
A|--6--8----4--8----6--8----6--8----6--8----4--8-----------------|
E|--4--6-------6----4--6-------6----4--6-------6-----------------|

e|---------------------------------------------------------------|
B|---------------------------------------------------------------|
G|----------8---------------6---------------6---------------8----|
D|--6--8----8--8----6--8----6--8----6--8----6--8----6--8----8--8-|
A|--6--8----6--8----6--8----4--8----6--8----4--8----6--8----6--8-|
E|--4--6-------6----4--6-------6----4--6-------6----4--6-------6-|


Repeat Refrain
Repeat Chorus

Pre-Verse 3:

Lead Guitar
e|---------------------------------------------------------------|
B|---------------------------------------------------------------|
G|---6-6-----6-6-----6-----8--8b9~---6-6-----6-6-----6-----8--8b9|
D|8-------8-------8---------------8-------8-------8--------------| X 2
A|---------------------------------------------------------------|
E|---------------------------------------------------------------|

Rhythm Guitar
e|---------------------------------------------------------------|
B|---------------------------------------------------------------|
G|---------------------------------------------------------------|
D|---------------------------------------------------------------| X 2
A|----------------------------4b5~--------------------------4h6b7|
E|4--6-6--4--6-6--4--6--4--6------4--6-6--4--6-6--4--6--4--6-----|

Guitar Solo:

Lead Guitar
e|----------------------------------10\11\13/11/10---------------|
B|---------------6-8b9-6h8-11b12~11--------------11\9-9-11/8/----|
G|7b8~~~~~~~~~~7--------------------------------------------7/3b4|
D|---------------------------------------------------------------|
A|---------------------------------------------------------------|
E|---------------------------------------------------------------|

e|----------------10\11\13/11/10---------------------------------|
B|-5b6---------/11----------------11--11b12~~~~\9\8\6------------|
G|-----3-0-3-----------------------------------------\7~~~~~~~~~-|
D|---------------------------------------------------------------|
A|---------------------------------------------------------------|
E|---------------------------------------------------------------|

e|---------------------------------------------------------------|
B|--------------------------0/6~~~~~~6/8~~~~~8/9~~~~~~9/11~~~~~~-|
G|-8~~~~~8\7~~~~~7\3~~~~~~~~-------------------------------------|
D|---------------------------------------------------------------|
A|---------------------------------------------------------------|
E|---------------------------------------------------------------|

Rhythm Guitar
e|---------------------------------------------------------------|
B|---------------------------------------------------------------|
G|---------------------------------------------------------------|
D|---------------------------------------------------------------| X 2
A|----------------------------4b5~--------------------------4h6b7|
E|4--6-6--4--6-6--4--6--4--6------4--6-6--4--6-6--4--6--4--6-----|

  |-PM-|  |-PM-|    |-PM-|   |-PM-|  |-PM-|   |-PM-|   |-PM-|
e|---------------------------------------------------------------|
B|---------------------------------------------------------------|
G|---------------------------------------------------------------|
D|6/888-88--888-88--6/888-88--888-88--6/888-88--888-88--6/888-88-| X 2
A|6/888-88--888-88--6/888-88--888-88--6/888-88--888-88--6/888-88-|
E|4/666-66--666-66--4/666-66--666-66--4/666-66--666-66--4/666-66-|

Repeat Refrain
Repeat Chorus
Repeat Pre-Verse 3
Repeat Pre-Verse (with some palm muting for the rap part)

Coda:

Lead Guitar				   |------  Break -------| 	
e|---------------------------------------------------------------|
B|---------------------------------------------------------------|
G|-----6-6-----6-6-----6--8--8b9~--------------------------------|
D|--8-------8-------8-----------------8-8-x----------------------| 
A|------------------------------------8-8-x----------------------|
E|------------------------------------6-6-x----------------------|

Rhythm Guitar				   |------  Break -------|
e|---------------------------------------------------------------|
B|---------------------------------------------------------------|
G|---------------------------------------------------------------|
D|------------------------------------8-8-x----------------------| 
A|----------------------------4b5~----8-8-x----------------------|
E|4--6-6--4--6-6--4--6--4--6----------6-6-x----------------------|

| /  slide up
| \  slide down
| h  hammer-on
| b  Bend 
| p  pull-off
| ~  vibrato
| +  harmonic
| x  Mute note
| PM Palm mute





Comments


Popular Francis M tabs & chords
Superproxy2k6 Bass Tabs
Girl Be Mine 1 Chords
Higante Chords
Baw-Waw-Waw! Tabs
Kabataan Para Sa Kinabukasan Tabs
Kaleidoscope World 1 Tabs
Superproxy2k6 Tabs
Superproxy2k6 1 Tabs
Three Stars And A Sun Tabs
Cold Summer Nights Ukulele


Song lyrics



↑ Back to top | Tablatures and chords are parodies/interpretations of the original songs. You may use it for private study, scholarship, research or language learning purposes only
© 2014 AZChords.com Contact us | Privacy policy | DMCA | Add/correct tabs | Request tabs | Top 50 tabs