» » »

Fra Lippo Lippi, Later Tabs (ver.1)

Artists:  A B C D E F G H I J K L M N O P Q R S T U V W X Y Z # 

Later Tabs (ver.1)

Fra Lippo Lippi Tabs
 Rating:
4/5 (4 votes)
Later lessons Tabs too difficult? Try these video lessons and learn fast
1
                Well all right here is the song Later, this is my first attempt 
in tabbing a song for others. This is my own interpretation of the song. 
I’m 110% sure in the intro and solo. This song is great!! Hope you like it!! Enjoy!!!!
 
Any corrections and improvements are welcome.
   
 
     HERE IS THE INTRO:
   
     
   e|-7--------------------7-------------------------------|
   B|-8--8-8------------8-----10--7------------------------|
   G|-7-------7-7--7-7---------------7---------------------|
   D|------------------------------------------------------|
   A|------------------------------------------------------|
   E|------------------------------------------------------|
   
   
      HERE IS THE SOLO:
   
   
   E|-----8--10—-10h11--10--8----------8—-10\13--13------8--10—10\13--11-------
   B|------------------------------11------------------------------------------
   G|-10-----------------------10--------------------10------------------------
   D|--------------------------------------------------------------------------
   A|--------------------------------------------------------------------------
   E|--------------------------------------------------------------------------
   
    
   E|-13--10-10-----------------8h10-8--13--10-10-----------------8h10-8-------|
   B|------------11-11------11---------------------11-11------11---------------|
   G|-------------------10--------------------------------10-------------------|
   D|--------------------------------------------------------------------------|
   A|--------------------------------------------------------------------------|
   E|--------------------------------------------------------------------------|
   
   
   
   
   E|-------------------10h11—-8h10--6----------10h11--8—-10h11—11h13--13------|
   B|-10------11h13-11----------------------11---------------------------------|
   G|-----10----------------------------10-------------------------------------|
   D|--------------------------------------------------------------------------|
   A|--------------------------------------------------------------------------|
   E|--------------------------------------------------------------------------|
   
   
   
        HERE IS THE LYRICS WITH CHORDS: 
        
              G                        GM7                       Dm7           E
        How could you come with me when you knew all along that you had to go
              Am                  G                        F               D
        How could you watch me sleep so close to you pretending not to know
             G                    D         F          E7
        How could you memorize my name and forget who I am 
              Am                            G       F        D
        How could you think your still the same believing I can 
 
        CHORUS 1:
             G                    Am   
        It’s too late to start pretending 
             Bm                    C
        It’s too late for a new beginning 
                         Em     Am   G       F-D
        Later than the sunset later than the rain
                    G       Am   D   G
        Later than ever to love you again
 
              Bb                              BbM7           F            G 
        How could you ask for more than an innocent smile trusting me to stay
              Cm                           Bb              Ab          F
        How could you close the door and leave me here supposing I’m okay
              Bb                       F            Ab        G
        How could you break down my disguise and uncover my fears
              Cm                    Bb     Ab         F
        How could you look into my eyes ignoring my tears
 
 
        CHORUS 2:
             Bb                   Cm
        It’s too late to start pretending 
                Dm                 Eb
        It’s too late for a new beginning 
                         Gm    Cm            Ab-F   
        Later than the sunset later than the rain
                    Gm       Cm   F    Bb
        Later than never to love you again ( SOLO )
 
        ADLIB: Bb-Cm-Dm-Eb-Gm-F-Eb-F-Cm-F
 
        (Repeat chorus 2 except last word)
          Cm     Dm   Eb   Gm-F-Eb-Dm
        …again…yeah…yeah…ohh
         F         Bb
        It’s too late
            
Submit corrections

comments powered by Disqus
↑ Back to top | Fra Lippo Lippi Tabs for Later. Lyrics for acoustic guitar and electric guitar. 1 Tablatures and chords are parodies/interpretations of the original songs. You may use it for private study, scholarship, research or language learning purposes only