» » »

Four Year Strong, On A Saturday Bass tabs (ver.1)

Artists:  A B C D E F G H I J K L M N O P Q R S T U V W X Y Z # 

On A Saturday Bass tabs (ver.1)

Four Year Strong Tabs
 Rating:
4/5 (4 votes)
On A Saturday lessons Tabs too difficult? Try these video lessons and learn fast
                Four Year Strong- On A Saturday
Enemy of the World
Bass Tab
Tuning- Drop D

May not be 100% perfect at parts- im not totally sure- but it's good enough. 

INTRO:
G |-----------------------------------------------|
D |-----------------------------------------------|
A |-----------------------------------------------|
D |77777777-10101010-3333-55555555-10101010-5555--|
                                                   X2
G |-----------------------------------------------| 
D |-----------------------------------------------|
A |-----------------------------------------------|
D |33333333-10101010-5555-7\----------------------|

G |-----------------------------------------------|
D |-----------------------------------------------|
A |-----------------------------------------------|
D |7\---------------------------------------------|

VERSE 1

G |-----------------------------------------------|
D |-----------------------------------------------|
A |---88-77-00-33333333----88-77-00-55555555------|
D |77-------------------55------------------------|

G |-----------------------------------------------|
D |-----------------------------------------------|
A |-----------------------------------------------|
D |3333333333333333-77777777-55555555-------------|

G |-----------------------------------------------|
D |-----------------------------------------------|
A |-----------------------------------------------|
D |0000000000000000-3333333333333333--------------|

G |-----------------------------------------------|
D |-----------------------------------------------|
A |-----------------------------------------------|
D |7777777777777777-5555555555555555--------------|

PRE-CHORUS (listen to song for strumming pattern)

G |------------------------------------------------------------|
D |------------------------------------------------------------|
A |------------------------------------------------------------|
D |3~~~~~~~~~~~~~~~-2~~~~~~~-00-00-03~~~~~~~~~~~~~-07\---------|

CHORUS

G |-----------------------------------------------|
D |-----------------------------------------------|
A |-----------------------------------------------|
D |77777777-10101010-3333-55555555-10101010-5555--|
                                                   X2
G |-----------------------------------------------| 
D |-----------------------------------------------|
A |-----------------------------------------------|
D |33333333-10101010-5555-7\----------------------|

POST CHORUS 

G |-----------------------------------------------|
D |-----------------------------------------------|
A |-----------------------------------------------|
D |77777777-10101010-3333-55555555-10101010-5555--|
                                                   
G |-----------------------------------------------| 
D |-----------------------------------------------|
A |-----------------------------------------------|
D |33333333-10101010-5555-7\----------------------|

G |-----------------------------------------------|
D |-----------------------------------------------|
A |-----------------------------------------------|
D |7\---------------------------------------------|

VERSE 2

G |-----------------------------------------------|
D |-----------------------------------------------|
A |---88-77-00-33333333----8~-7~-0~-5~~~~~~~------|
D |77-------------------5-------------------------|

G |-----------------------------------------------|
D |-----------------------------------------------|
A |-----------------------------------------------|
D |3333333333333333-77777777-55555555-------------|

G |-----------------------------------------------|
D |-----------------------------------------------|
A |-----------------------------------------------|
D |0000000000000000-3333333333333333--------------|

G |-----------------------------------------------|
D |-----------------------------------------------|
A |-----------------------------------------------|
D |7777777777777777-5555555555555555--------------|

PRE-CHORUS 

G |------------------------------------------------------------|
D |------------------------------------------------------------|
A |------------------------------------------------------------|
D |3~~~~~~~~~~~~~~~-2~~~~~~~-00-00-03~~~~~~~~~~~~~-07\---------|

CHORUS 

G |-----------------------------------------------|
D |-----------------------------------------------|
A |-----------------------------------------------|
D |77777777-10101010-3333-55555555-10101010-5555--|
                                                   X2
G |-----------------------------------------------| 
D |-----------------------------------------------|
A |-----------------------------------------------|
D |33333333-10101010-5555-7\----------------------|

G |-----------------------------------------------|
D |-----------------------------------------------|
A |-----------------------------------------------|
D |7\---------------------------------------------|

BRIDGE (PART 1)

G |-----------------------------------------------|
D |-----------------------------------------------|
A |---88-77-00-33333333----88-77-00-55555555------|
D |77-------------------55------------------------|
                                                   X2
G |-----------------------------------------------|
D |-----------------------------------------------|
A |-----------------------------------------------|
D |3333333333333333-77777777-55555555-------------|

BRIDGE (PART 2)

G |-----------------------------------------------|
D |-----------------------------------------------|
A |5555555555555555-8888888888888888--------------|
D |-----------------------------------------------|
                                                   
G |-----------------------------------------------|
D |-----------------------------------------------|
A |10101010101010101010101010101010---------------| X2
D |-----------------------------------------------|

G |-----------------------------------------------|
D |-----------------------------------------------|
A |12121212121212121212121212121212---------------|
D |-----------------------------------------------|

PRE-CHORUS 

G |------------------------------------------------------------|
D |------------------------------------------------------------|
A |------------------------------------------------------------|
D |3~~~~~~~~~~~~~~~-2~~~~~~~-00-00-03~~~~~~~~~~~~~-07\---------|

CHORUS 

G |-----------------------------------------------|
D |-----------------------------------------------|
A |-----------------------------------------------|
D |77777777-10101010-3333-55555555-10101010-5555--|
                                                   X2
G |-----------------------------------------------| 
D |-----------------------------------------------|
A |-----------------------------------------------|
D |33333333-10101010-5555-7\----------------------|

G |-----------------------------------------------|
D |-----------------------------------------------|
A |-----------------------------------------------|
D |77777777-10101010-3333-55555555-10101010-5555--|
                                                   
G |-----------------------------------------------| 
D |-----------------------------------------------|
A |-----------------------------------------------|
D |33333333-10101010-5555-7\----------------------|

G |-----------------------------------------------|
D |-----------------------------------------------|
A |-----------------------------------------------| X2
D |7\---------------------------------------------|
            
Submit corrections

comments powered by Disqus
↑ Back to top | Four Year Strong Bass for On A Saturday. Lyrics for acoustic guitar and electric guitar. Tablatures and chords are parodies/interpretations of the original songs. You may use it for private study, scholarship, research or language learning purposes only